Smile Empty Soul - Bottom Of A Bottle Chords & Tabs

 

Bottom Of A Bottle Chords & Tabs

Smile Empty Soul Chords & Tabs

Version: 9 Type: Tab 0 ratings
1 star 2 stars 3 stars 4 stars 5 stars
comments

Bottom Of A Bottle Tab

   
Smile Empty Soul

Bottom of the Bottle.

Tuning: Drop D flat
Db	Ab	Db	Gb	Bb	Eb

This song is the song Kicks A$$. When you see it live it is even better.
It is kind of hard to hear some of the notes because they are overlapped and I
think that he plays the song and overdubs the main riff on theCD. Listen to it
and turn it up and you will hear what I am talking about. I didn't put anything
about timing so you can figure it out. N-Joy...

P= Pull
...= Palm Muted
/=Slide

____________________________________________________________________

INTRO
GTR. 1

										
Eb	[-------------------------------------------|------------]
Bb	[-----------------------------0-------------|--0---------]
Gb	[-----0----5-5p4-------5---------0----------|-----0------]
Db	[--4-------------5--------3---------5\4-----|--------5\--]
Ab	[-------0-----------0-----------------------|------------]
Db	[--2----------------------------------------|------------]

								This is for the second
  								time that he plays it.

______________________________________________________________________

INTRO CON'T
GTR 1

Eb	[--------------------------------------------------------]
Bb	[--------------------------------------------------------]
Gb	[----------5---5---5-------------------------------------]
Db	[--2---0---5---5---5-5---5/7---7---XX---7/10---7---5-----]
Ab	[--2---0---3---3---3-5---5/7---7---XX---7/10---7---5-----]
Db	[--2---0-------------5---5/7---7---XX---7/10---7---5-----]



FILL\GTR. 2	

This part is played really fast. Not quiet tremolo though. Listen and 
you will hear all of the changes of notes.


Eb	[----0-0-0-0-0-0-0-0-0-0-0-0-0-0-0-0-0-0-0-0-0-0-0-0-----]
Bb	[----5-5-5-5-5-5-5-5-5-5-5-5-5-5-5-5-5-5-5-5-5-5-5-5-----]
Gb	[--------------------------------------------------------]
Db	[--------------------------------------------------------]
Ab	[--------------------------------------------------------]
Db	[--------------------------------------------------------]
						   /\	Repeat as many times
							as necessary.

Eb	[----0-0-0-0-0-0-0-0-0-0-0-0-0-0-0-0-0-0-0-0-0-0-0-0-----]
Bb	[----7-7-7-7-7-7-7-7-7-7-7-7-8-8-8-8-8-8-8-8-8-8-8-8-----]
Gb	[--------------------------------------------------------]
Db	[--------------------------------------------------------]
Ab	[--------------------------------------------------------]
Db	[--------------------------------------------------------]


Eb	[----0--0--0--0--0--0--0--0--0--0--0--0--0--0--0--0------]
Bb	[---10-10-10-10-10-10-10-10-10-10-10-10-10-10-10-10------]
Gb	[--------------------------------------------------------]
Db	[--------------------------------------------------------]
Ab	[--------------------------------------------------------]
Db	[--------------------------------------------------------]


Eb	[----0--0--0--0--0--0--0--0--0--0--0--0--0--0--0--0------]
Bb	[---15-15-15-15-15-15-15-15-15-15-15-15-15-15-15-15------]
Gb	[--------------------------------------------------------]
Db	[--------------------------------------------------------]
Ab	[--------------------------------------------------------]
Db	[--------------------------------------------------------]

___________________________________________________________________


VERSE
GTR. 1


Eb	[--------------------------------------------------------]
Bb	[--------------------------------------------------------]
Gb	[--------------------------------------------------------]
Db	[--------------------------------------------------------]
Ab	[----------3---3---3-------------------------------------]
Db	[--2---0--------------5----5/7---7---XX---7/10---7----5--]


____________________________________________________________________


PRE-CHORUS
GTR. 1


Eb	[--------------------------------------------------------]
Bb	[--------------------------------------------------------]
Gb	[--------------------------------------------------------]
Db	[---4-4-4-4-4-4-4-4--4-4-4-4-4-4-4-4---------------------]
Ab	[---2-2-2-2-2-2-2-2--0-0-0-0-0-0-0-0---------------------]
Db	[---2-2-2-2-2-2-2-2--0-0-0-0-0-0-0-0---------------------]


Eb	[------------------------------------3-------------------]
Bb	[---0-0-0-0-0-0-0-0--3-3-3-3-3-3-3-3-3-------------------]
Gb	[---4-4-4-4-4-4-4-4--5-5-5-5-5-5-5-5-5-------------------]
Db	[---2-2-2-2-2-2-2-2--5-5-5-5-5-5-5-5-5-------------------]
Ab	[---0-0-0-0-0-0-0-0--3-3-3-3-3-3-3-3-3-------------------]
Db	[--------------------------------------------------------]


___________________________________________________________________


CHOURS
GTR 1


Eb	[-------------------0------------------------------------]
Bb	[-------------------3------------------------------------]
Gb	[-------------------2---------------5---5---5------------]
Db	[---2---2---0---0---0---0---7---7---5---5---5---2--------]
Ab	[---2---2---0---0---0---0---7---7---3---3---3---2--------]
Db	[---2---2---0---0-------0---7---7---------------2--------]


FILL\GTR.2


Eb	[----0-0-0-0-0-0-0-0-0-0-0-0-0-0-0-0-0-0-0-0-0-0-0-0-----]
Bb	[----5-5-5-5-5-5-5-5-5-5-5-5-5-5-5-5-5-5-5-5-5-5-5-5-----]
Gb	[--------------------------------------------------------]
Db	[--------------------------------------------------------]
Ab	[--------------------------------------------------------]
Db	[--------------------------------------------------------]
					

Eb	[----0-0-0-0-0-0-0-0-0-0-0-0-0-0-0-0-0-0-0-0-0-0-0-0-----]
Bb	[----7-7-7-7-7-7-7-7-7-7-7-7-8-8-8-8-8-8-8-8-8-8-8-8-----]
Gb	[--------------------------------------------------------]
Db	[--------------------------------------------------------]
Ab	[--------------------------------------------------------]
Db	[--------------------------------------------------------]


Eb	[----0--0--0--0--0--0--0--0--0--0--0--0--0--0--0--0------]
Bb	[---10-10-10-10-10-10-10-10-10-10-10-10-10-10-10-10------]
Gb	[--------------------------------------------------------]
Db	[--------------------------------------------------------]
Ab	[--------------------------------------------------------]
Db	[--------------------------------------------------------]


Eb	[----0--0--0--0--0--0--0--0--0--0--0--0--0--0--0--0------]
Bb	[---15-15-15-15-15-15-15-15-15-15-15-15-15-15-15-15------]
Gb	[--------------------------------------------------------]
Db	[--------------------------------------------------------]
Ab	[--------------------------------------------------------]
Db	[--------------------------------------------------------]


_____________________________________________________________________

VERSE
GTR. 1


Eb	[--------------------------------------------------------]
Bb	[--------------------------------------------------------]
Gb	[--------------------------------------------------------]
Db	[--------------------------------------------------------]
Ab	[----------3---3---3-------------------------------------]
Db	[--2---0--------------5----5/7---7---XX---7/10---7----5--]

[ Tab from: http://www.guitartabs.cc/tabs/s/smile_empty_soul/bottom_of_a_bottle_tab_ver_9.html ]
_____________________________________________________________________


PRE-CHORUS
GTR. 1


Eb	[--------------------------------------------------------]
Bb	[--------------------------------------------------------]
Gb	[--------------------------------------------------------]
Db	[---4-4-4-4-4-4-4-4--4-4-4-4-4-4-4-4---------------------]
Ab	[---2-2-2-2-2-2-2-2--0-0-0-0-0-0-0-0---------------------]
Db	[---2-2-2-2-2-2-2-2--0-0-0-0-0-0-0-0---------------------]


Eb	[------------------------------------3-------------------]
Bb	[---0-0-0-0-0-0-0-0--3-3-3-3-3-3-3-3-3-------------------]
Gb	[---4-4-4-4-4-4-4-4--5-5-5-5-5-5-5-5-5-------------------]
Db	[---2-2-2-2-2-2-2-2--5-5-5-5-5-5-5-5-5-------------------]
Ab	[---0-0-0-0-0-0-0-0--3-3-3-3-3-3-3-3-3-------------------]
Db	[--------------------------------------------------------]


______________________________________________________________________


CHOURS
GTR 1


Eb	[-------------------0------------------------------------]
Bb	[-------------------3------------------------------------]
Gb	[-------------------2---------------5---5---5------------]
Db	[---2---2---0---0---0---0---7---7---5---5---5---2--------]
Ab	[---2---2---0---0---0---0---7---7---3---3---3---2--------]
Db	[---2---2---0---0-------0---7---7---------------2--------]

On the final time before the bridge play the below. \/
Eb	[--------------------------------------------------------]
Bb	[--------------------------------------------------------]
Gb	[-----------------------------------5---5---5------------]
Db	[---2---2---0---0---0---0---7---7---5---5---5---2--------]
Ab	[---2---2---0---0---0---0---7---7---3---3---3---2--------]
Db	[---2---2---0---0---0---0---7---7---------------2--------]


FILL\GTR.2


Eb	[----0-0-0-0-0-0-0-0-0-0-0-0-0-0-0-0-0-0-0-0-0-0-0-0-----]
Bb	[----5-5-5-5-5-5-5-5-5-5-5-5-5-5-5-5-5-5-5-5-5-5-5-5-----]
Gb	[--------------------------------------------------------]
Db	[--------------------------------------------------------]
Ab	[--------------------------------------------------------]
Db	[--------------------------------------------------------]
					

Eb	[----0-0-0-0-0-0-0-0-0-0-0-0-0-0-0-0-0-0-0-0-0-0-0-0-----]
Bb	[----7-7-7-7-7-7-7-7-7-7-7-7-8-8-8-8-8-8-8-8-8-8-8-8-----]
Gb	[--------------------------------------------------------]
Db	[--------------------------------------------------------]
Ab	[--------------------------------------------------------]
Db	[--------------------------------------------------------]


Eb	[----0--0--0--0--0--0--0--0--0--0--0--0--0--0--0--0------]
Bb	[---10-10-10-10-10-10-10-10-10-10-10-10-10-10-10-10------]
Gb	[--------------------------------------------------------]
Db	[--------------------------------------------------------]
Ab	[--------------------------------------------------------]
Db	[--------------------------------------------------------]


Eb	[----0--0--0--0--0--0--0--0--0--0--0--0--0--0--0--0------]
Bb	[---15-15-15-15-15-15-15-15-15-15-15-15-15-15-15-15------]
Gb	[--------------------------------------------------------]
Db	[--------------------------------------------------------]
Ab	[--------------------------------------------------------]
Db	[--------------------------------------------------------]


_____________________________________________________________________


BRIDGE
GTR.1


Eb	[--------------------------------------------------------]
Bb	[--------------------------------------------------------]
Gb	[--------------------------------------------------------]
Db	[--------------------------------------------------------]
Ab	[---2-2-2-2-2-2-2-2--2-2-2-2-2-2-2-2---------------------]
Db	[---2-2-2-2-2-2-2-2--5-5-5-5-5-5-5-5---------------------]
	.....................................

Eb	[--------------------------------------------------------]
Bb	[--------------------------------------------------------]
Gb	[---5-5-5-5-5-5-5-5--5-5-4-5-4-5-5-4---------------------]
Db	[---5-5-5-5-5-5-5-5--5-5-5-5-5-5-5-5---------------------]
Ab	[---3-3-3-3-3-3-3-3--3-3-3-3-3-3-3-3---------------------]
Db	[--------------------------------------------------------]
	.....................................
	On the last time slowly come of the palm mute.


______________________________________________________________________


CHOURS
GTR. 1

Eb	[-------------------0------------------------------------]
Bb	[-------------------3------------------------------------]
Gb	[-------------------2---------------5---5---5------------]
Db	[---2---2---0---0---0---0---7---7---5---5---5---2--------]
Ab	[---2---2---0---0---0---0---7---7---3---3---3---2--------]
Db	[---2---2---0---0-------0---7---7---------------2--------]

On the final time before the outro play the below. \/
Eb	[--------------------------------------------------------]
Bb	[--------------------------------------------------------]
Gb	[-----------------------------------5---5---5------------]
Db	[---2---2---0---0---0---0---7---7---5---5---5---2--------]
Ab	[---2---2---0---0---0---0---7---7---3---3---3---2--------]
Db	[---2---2---0---0---0---0---7---7---------------2---10\--]


FILL\GTR.2


Eb	[----0-0-0-0-0-0-0-0-0-0-0-0-0-0-0-0-0-0-0-0-0-0-0-0-----]
Bb	[----5-5-5-5-5-5-5-5-5-5-5-5-5-5-5-5-5-5-5-5-5-5-5-5-----]
Gb	[--------------------------------------------------------]
Db	[--------------------------------------------------------]
Ab	[--------------------------------------------------------]
Db	[--------------------------------------------------------]
					

Eb	[----0-0-0-0-0-0-0-0-0-0-0-0-0-0-0-0-0-0-0-0-0-0-0-0-----]
Bb	[----7-7-7-7-7-7-7-7-7-7-7-7-8-8-8-8-8-8-8-8-8-8-8-8-----]
Gb	[--------------------------------------------------------]
Db	[--------------------------------------------------------]
Ab	[--------------------------------------------------------]
Db	[--------------------------------------------------------]


Eb	[----0--0--0--0--0--0--0--0--0--0--0--0--0--0--0--0------]
Bb	[---10-10-10-10-10-10-10-10-10-10-10-10-10-10-10-10------]
Gb	[--------------------------------------------------------]
Db	[--------------------------------------------------------]
Ab	[--------------------------------------------------------]
Db	[--------------------------------------------------------]


Eb	[----0--0--0--0--0--0--0--0--0--0--0--0--0--0--0--0------]
Bb	[---15-15-15-15-15-15-15-15-15-15-15-15-15-15-15-15------]
Gb	[--------------------------------------------------------]
Db	[--------------------------------------------------------]
Ab	[--------------------------------------------------------]
Db	[--------------------------------------------------------]


______________________________________________________________________



OUTRO CON'T
GTR 1

Eb	[--------------------------------------------------------]
Bb	[--------------------------------------------------------]
Gb	[----------5---5---5-------------------------------------]
Db	[--2---0---5---5---5-5---5/7---7---XX---7/10---7---5---2-]
Ab	[--2---0---3---3---3-5---5/7---7---XX---7/10---7---5---2-]
Db	[--2---0-------------5---5/7---7---XX---7/10---7---5---2-]
Comments