Smile Empty Soul - Bottom Of A Bottle Chords & Tabs

 

Bottom Of A Bottle Chords & Tabs

Smile Empty Soul Chords & Tabs

Version: 8 Type: Tab 0 ratings
1 star 2 stars 3 stars 4 stars 5 stars
comments

Bottom Of A Bottle Tab

   
Tuning:(6th-1st)
Db,Ab,Db,Gb,Bb,Eb

I didn't lay out the order of Chorus and Verses and all that, but
just listen to the song to get that.


Intro:  (clean with Chorus)
-------------------------------------------------
-------------------------------------------------
----0----5---5-4---------0-----4-----------------
-----------------5----------------5-0------------  x2
----------------------0-----3--------------------
--2---0------------------------------------------

(Distortion)
-------------------------------------------------
-------------------------------------------------
-------------------------------------------------
--2--0---10--10-10-10---5-7-7-7--7-5-7-7-7--7-5-- x2
--2--0---10--10-10-10---5-7-7-7--7-5-7-7-7--7-5--
--2--0---10--10-10-10---5-7-7-7--7-5-7-7-7--7-5--

Verse(some kind of clean picking that i haven't yet tabbed)
[ Tab from: http://www.guitartabs.cc/tabs/s/smile_empty_soul/bottom_of_a_bottle_tab_ver_8.html ]
Chorus: (distortion)
-------------------------------------------------
-------------------------------------------------
-------------------------------------------------
----2--0-----7--10-------------------------------
----2--0-----7--10-------------------------------
----2--0-----7--10-------------------------------

Bridge: (palm muted) (they overlap a flange up and flange down
in the recording, but don't worry about that)

------------------------------------------------------------
---*play 3 times----------------**4th time------------------
------------------------------------------------------------
----2-----5-----10-----10---------2-----5-----10-----12-----
----2-x8--5-x8--10-x8--10-x8------2-x8--5-x8--10-x8--12-x5--
----2-----5-----10-----10---------2-----5-----10-----12-----

Outro: (same as distorted part of intro) but ends on this chord:
-------------------------------------------------
-------------------------------------------------
-------------------------------------------------
----2--------------------------------------------
----2-----(just rip it)--------------------------
----2--------------------------------------------

If you think some things are different feel free to leave a correction, or if you
know the verse part submit that as a correction also and i can update this tab.
Have fun.  Good song.


-Davery
Comments