Smile Empty Soul - Bottom Of A Bottle Chords & Tabs

 

Bottom Of A Bottle Chords & Tabs

Smile Empty Soul Chords & Tabs

Version: 5 Type: Tab 0 ratings
1 star 2 stars 3 stars 4 stars 5 stars
comments

Bottom Of A Bottle Tab

smile empty soul
"bottom of a bottle"
smile empty soul (2003)
tuning, guitars 1 and 2: ADGCFa
tabbed by: robert walden

Intro 
guitar 1 (clean)
-----------------
-----------------
-----------------
-----------8-----
--------6----9---
-6---4-----------

guitar 2 (clean with wah)
------------------
---4-5-5p4p0---4p0
-2-----------0----
------------------
------------------
------------------

guitars 1 and 2 (distortion: heavy)
-------------------------------------------
-------------------------------------------
-------------------------------------------
-----11-11-11------------------------------
-8-6--9--9--9-11-13-13-13-XX-15-15-15-13-11
-6-4-----------9-11-11-11-XX-13-13-13-11--9

verse (same as above just clean and palm muted)

fill (* means harmonics)(do this during chorus also)
-7*--5*---
--------7*
----------
----------
----------
----------

prechorus ("something makes me carry On...")
-----------------------------
-----------------------------
-----------------------------
---------------888888-1111111-those are elevens(turn on distortion here)
-888888-666666-666666--999999
-666666-444444---------------

chorus (guitar 1, distortion:heavy)
------------------
------------------
------------------
---------8-8-11-11
-8-8-6-6-6-6--9--9
-6-6-4-4----------
[ Tab from: http://www.guitartabs.cc/tabs/s/smile_empty_soul/bottom_of_a_bottle_tab_ver_5.html ]
chorus fill (guitar 2, heavy distortion)
-------------------------------------------------------
-1010101010-1212121212-1313131313-1515151515-2020202020
-------------------------------------------------------
-------------------------------------------------------
-------------------------------------------------------
-------------------------------------------------------

2nd verse fills (guitar 1)
---------------------
-17-18-20-18-17h18p17
---------------------
---------------------
---------------------
---------------------

guitar 2
---------------
-17h18p17h18p17
---------------
---------------
---------------
---------------

bridge (guitar 1)(lightly palm-muted)
-----------------------------------------
-----------------------------------------
-----------------------------------------
------------------------11111111111111---
-8888888-11111111111111--9-9-9-9-9-9-9-XX
-6666666--9-9-9-9-9-9-9----------------XX (do the x's at the end of the last
                                       sequence of the bridge before the chorus)

guitar 2 with wah
-------------------------------------------------
-0(slowly closed to open)-0(slowly open to closed)
-------------------------------------------------
-------------------------------------------------
-------------------------------------------------
-------------------------------------------------

thats it piece by piece
figure out the order by listening to song there may or may not be two guitarists
if not than it was overlapped but just get another guitarist to compensate.
IM me at kornfellow91 for comments on tab. or leave one in correction box.
smile empty soul rocks!!!
Comments