Smile Empty Soul - Bottom Of A Bottle Chords & Tabs

 

Bottom Of A Bottle Chords & Tabs

Smile Empty Soul Chords & Tabs

Version: 3 Type: Tab 3 ratings
1 star 2 stars 3 stars 4 stars 5 stars
comments

Bottom Of A Bottle Tab

   
Smile Empty Soul - Bottom of a Bottle 

Drop D (Db-Ab-Db-Gb-Bb-Eb)
X = No Sound
. = Plam Mute
~ = Slide
x(#) = How many time u have to do it


Intro

E --------------------------  E -----------------------
B --------------------------  B -----------------------
G --------5-5-4--0-5-4------  G -------5-5-4--0-5-4----
D -4-5-0-------5-------5-4--  D -4-5-0------5------5-0-
A --------------0-3---------  A -------------0-3-------
D --------------------------  D -----------------------

Interludge

E ---------------------------------
B ---------------------------------
G --------------------------------- x2
D -2-0-10-10-10-5~7-7-7-X-X-7~9~7~5
A -2-0-10-10-10-5~7-7-7-X-X-7~9~7~5
D -2-0-10-10-10-5~7-7-7-X-X-7~9~7~5

E ----0-0-0-0-0-0-0-0-0---0-0-0-0-0-0-0-0-0-0-0-0-0-0-0----0--0--0--0--0--0--0--
B ----5-5-5-5-5-5-5-5-5~7-7-7-7-7-7-7-7~8-8-8-8-8-8-8-8~10-10-10-10-10-10-10-10-
G ------------------------------------------------------------------------------
D ------------------------------------------------------------------------------
A ------------------------------------------------------------------------------
D ------------------------------------------------------------------------------

E ----0-0-0-0-0-0-0-0-0-0-0-0-0-0-0-0-0-0-0-0-0-0-0-0-0--0--0--0--0--0--0--0--0--0--0--
B ~15-15-15-15-15-15-15-15-15-15-15-15-15-15-15-15-15-15-15-15-15-15-15-15-15-15-15-15-
G -------------------------------------------------------------------------------------
D -------------------------------------------------------------------------------------
A -------------------------------------------------------------------------------------
D -------------------------------------------------------------------------------------

Verse

E -13-14---
B ------14-
G ---------
D ---------
A ---------

Pre-Chrous

E ----------------------------------------------------------------------3-
B -------------------------------------0-0-0-0-0-0-0-0--3-3-3-3-3-3-3-3-3-
G -------------------------------------4-4-4-4-4-4-4-4--5-5-5-5-5-5-5-5-5-
D ---4-4-4-4-4-4-4-4--4-4-4-4-4-4-4-4--2-2-2-2-2-2-2-2--5-5-5-5-5-5-5-5-5-
A ---2-2-2-2-2-2-2-2--0-0-0-0-0-0-0-0--0-0-0-0-0-0-0-0--3-3-3-3-3-3-3-3-3-
D ---2-2-2-2-2-2-2-2--0-0-0-0-0-0-0-0-------------------------------------

Chorus

E ---------------------------------------
B ---------------------------------------
G -------------2-2-----5-5-5-0-----------
D ---2-2-0-0-0-2-2-----5-5-5-0-----------
A ---2-2-0-0-0-0-0-----3-3-3-0-----------
D ---2-2-0-0-0-----0---------------------

Verse

E -13-14---
B ------14-
G ---------
D ---------
A ---------

E -10-9~8~9~8-
B ------------
G ------------
D ------------
A ------------
D ------------

Pre-Chrous
[ Tab from: http://www.guitartabs.cc/tabs/s/smile_empty_soul/bottom_of_a_bottle_tab_ver_3.html ]
E ----------------------------------------------------------------------3-
B -------------------------------------0-0-0-0-0-0-0-0--3-3-3-3-3-3-3-3-3-
G -------------------------------------4-4-4-4-4-4-4-4--5-5-5-5-5-5-5-5-5-
D ---4-4-4-4-4-4-4-4--4-4-4-4-4-4-4-4--2-2-2-2-2-2-2-2--5-5-5-5-5-5-5-5-5-        
A ---2-2-2-2-2-2-2-2--0-0-0-0-0-0-0-0--0-0-0-0-0-0-0-0--3-3-3-3-3-3-3-3-3-    
D ---2-2-2-2-2-2-2-2--0-0-0-0-0-0-0-0-------------------------------------        

Chorus

E ---------------------------------------
B ---------------------------------------
G -------------2-2-----5-5-5-0-----------            
D ---2-2-0-0-0-2-2-----5-5-5-0-----------  x4        -5-5-5-5 
A ---2-2-0-0-0-0-0-----3-3-3-0-----------            -0-0-0-0
D ---2-2-0-0-0-----0---------------------            -0-0-0-0

E ----------------------------
B ----------------------------
G ----------------------------
D -2-2-0-0-0-7-7-0-10-10-10-0-
A -2-2-0-0-0-7-7-0-10-10-10-0-
D -2-2-0-0-0-7-7-0-10-10-10-0-  x4

Bridge

E --------------------------------------
B --------------------------------------
G --------------------------------------
D --------------------------------------
A ---2-2-2-2-2-2-2-2--2-2-2-2-2-2-2-2-0-
D ---2-2-2-2-2-2-2-2--5-5-5-5-5-5-5-5---
     ..................................

E ---------------------------------------------
B ----------------------------------0----------
G ---5-5-5-5-5-5-5-5--5-4---5-4---5-4----------
D ---5-5-5-5-5-5-5-5--5-5-5-5-5-5-5-5----------
A ---3-3-3-3-3-3-3-3--3-3-3-3-3-3-3-3-0--------
D --------------------------------------------- x3
     ..................................


E --------------------------------------
B --------------------------------------
G --------------------------------------
D --------------------------------------
A ---2-2-2-2-2-2-2-2--2-2-2-2-2-2-2-2-0-
D ---2-2-2-2-2-2-2-2--5-5-5-5-5-5-5-5---
     ..................................

E --------------------------------
B --------------------------------
G ---5-5-5-5-5-5-5-5--5-4-4-4-X-X-
D ---5-5-5-5-5-5-5-5--5-4-4-4-X-X-
A ---3-3-3-3-3-3-3-3--3-3-3-3-X-X-
D --------------------------------
     ........................

Chorus

E ---------------------------------------
B ---------------------------------------
G -------------2-2-----5-5-5-0-----------            
D ---2-2-0-0-0-2-2-----5-5-5-0-----------  x4        -5-5-5-5 
A ---2-2-0-0-0-0-0-----3-3-3-0-----------            -0-0-0-0
D ---2-2-0-0-0-----0---------------------            -0-0-0-0

E ----------------------------
B ----------------------------
G ----------------------------
D -2-2-0-0-0-7-7-0-10-10-10-0-
A -2-2-0-0-0-7-7-0-10-10-10-0-
D -2-2-0-0-0-7-7-0-10-10-10-0-  x4

Outro

E --------------------------------------
B --------------------------------------
G --------------------------------------
D -2-0-10-10-10-5~7-7-7-X-X-7~9~7~5~2-X-
A -2-0-10-10-10-5~7-7-7-X-X-7~9~7~5~2-X-
D -2-0-10-10-10-5~7-7-7-X-X-7~9~7~5~2-X-
Comments