Smile Empty Soul - Bottom Of A Bottle Chords & Tabs

 

Bottom Of A Bottle Chords & Tabs

Smile Empty Soul Chords & Tabs

Version: 10 Type: Tab 0 ratings
1 star 2 stars 3 stars 4 stars 5 stars
comments

Bottom Of A Bottle Tab

   
Smile Empty Soul
Bottom of a Bottle

Drop Db

( ) - Harmonics

This is exactly how Sean plays it live.

Intro: (Clean)

|---------------------------------------|
|----------------------------0----------|
|----0------5-5p4p0--------------0------|
|-4--------------------5------------5\4-|
|-x-----------------0-----3-------------|
|-2-----0-------------------------------|

|---------------------------------------|
|----------------------------0----------|
|----0------5-5p4p0--------------0------|
|-4--------------------5------------5---|
|-x-----------------0-----3-------------|
|-2-----0-------------------------------|

(Distortion)

|---------------------------------------------------|
|---------------------------------------------------|
|---------5---5--5----------------------------------|
|-2---0---5---5--5-5----5/7---7---7---x-x-7/9-9-7-5-|
|-2---0---3---3--3-5----5/7---7---7---x-x-7/9-9-7-5-|
|-2---0------------5----5/7---7---7---x-x-7/9-9-7-5-|

|---------------------------------------------------|
|---------------------------------------------------|
|---------5---5--5----------------------------------|
|-2---0---5---5--5-5----5/7---7---7---x-x-7/9-9-7-5-|
|-2---0---3---3--3-5----5/7---7---7---x-x-7/9-9-7-5-|
|-2---0------------5----5/7---7---7---x-x-7/9-9-7-5-|


|-----------------------------------------------|
|-----------------------------------------------|
|-9-9-9-9-9-9-9-9-9/11-11-11-11-11-11-11-11-11/-|
|-x-x-x-x-x-x-x-x-x--x--x--x--x--x--x--x--x--x--|
|-7-7-7-7-7-7-7-7-7/-9--9--9--9--9--9--9--9--9/-|
|-----------------------------------------------|

|-------------------------------------------------------|
|-------------------------------------------------------|
|12-12-12-12-12-12-12-12-12/14-14-14-14-14-14-14-14-14/-|
|-x--x--x--x--x--x--x--x--x--x--x--x--x--x--x--x--x--x/-|
|10-10-10-10-10-10-10-10-10/12-12-12-12-12-12-12-12-12/-|
|-------------------------------------------------------|

|-------------------------------------------------------------------------|
|-------------------------------------------------------------------------|
|-19-19-19-19-19-19-19-19-19-19-19-19-19-19-19-19-19-19-19-19-19-19-19-19-|
|--x--x--x--x--x--x--x--x--x--x--x--x--x--x--x--x--x--x--x--x--x--x--x--x-|
|-17-17-17-17-17-17-17-17-17-17-17-17-17-17-17-17-17-17-17-17-17-17-17-17-|
|-------------------------------------------------------------------------|

Verse: (Distortion)
|--------------------------------------------------|
|--------------------------------------(7)---------|
|-Bass up until "girlfriend told me"-------(5)-----|
|----------------------------------------------(5)-|
|--------------------------------------------------|
|--------------------------------------------------|

Pre Chorus: (clean)

|-------------------------------------------------|
|-------------------------------------------------|
|-------------------------------------------------|
|-4-4-4-4-4-4-4-4-4-4-4-4-4-4-4-4-4-4-4-4-4-4-4-4-|
|-2-2-2-2-2-2-2-2-2-2-2-2-0-0-0-0-0-0-0-0-0-0-0-0-|
|-2-2-2-2-2-2-2-2-2-2-2-2-0-0-0-0-0-0-0-0-0-0-0-0-|

|-------------------------------------|
|-------------------------------------|
|-4-4-4-4-4-4-4-4-4-4-5-5-5-5-5-5-5-5-|
|-2-2-2-2-2-2-2-2-2-2-5-5-5-5-5-5-5-5-|
|-0-0-0-0-0-0-0-0-0-0-3-3-3-3-3-3-3-3-|
|-------------------------------------|

Chorus: (Distortion)

|------------------0------------------------------------|
|------------------3------------------------------------|
|------------------2-------------------5----5---5-------|
|-2----2---0----0--0---0-0--7----7--0--5----5---5---0-0-|
|-2----2---0----0--0---0-0--7----7--0--3----3---3---0-0-|
|-2----2---0----0--0---0-0--7----7--0---------------0-0-|


|------------------0------------------------------------|
|------------------3------------------------------------|
|------------------2-------------------5----5---5-------|
|-2----2---0----0--0---0-0--7----7--0--5----5---5---0-0-|
|-2----2---0----0--0---0-0--7----7--0--3----3---3---0-0-|
|-2----2---0----0--0---0-0--7----7--0---------------0-0-|


|------------------0------------------------------------|
|------------------3------------------------------------|
|------------------2-------------------5----5---5-------|
|-2----2---0----0--0---0-0--7----7--0--5----5---5---0-0-|
|-2----2---0----0--0---0-0--7----7--0--3----3---3---0-0-|
|-2----2---0----0--0---0-0--7----7--0---------------0-0-|


|------------------0------------------------------------|
|------------------3------------------------------------|
|------------------2-------------------5----5---5-------|
|-2----2---0----0--0---0-0--7----7--0--5----5---5---0-0-|
|-2----2---0----0--0---0-0--7----7--0--3----3---3---0-0-|
|-2----2---0----0--0---0-0--7----7--0---------------0-0-|

Verse: (Distortion) 

|----------------------------------------------|
|----------------------------------(7)---------|
|--------------------------------------(5)-----|
|--Bass up until "through the day"---------(5)-|
|----------------------------------------------|
|----------------------------------------------|


|-----------------------------------------------|
|--------------------------------15-13-12h13-12-|
|-----------------------------------------------|
|--Bass up until "making me pay"----------------|
|-----------------------------------------------|
|-----------------------------------------------|

Pre Chorus: (Distortion)

|----------------------|
|----------------------|
|-------------4~----5~-|
|-4~----4~----2~----5~-|
|-2~----0~----0~----3~-|
|-2~----0~-------------|

Chorus: (Distortion)

|------------------0------------------------------------|
|------------------3------------------------------------|
|------------------2-------------------5----5---5-------|
|-2----2---0----0--0---0-0--7----7--0--5----5---5---0-0-|
|-2----2---0----0--0---0-0--7----7--0--3----3---3---0-0-|
|-2----2---0----0--0---0-0--7----7--0---------------0-0-|


|------------------0------------------------------------|
|------------------3------------------------------------|
|------------------2-------------------5----5---5-------|
|-2----2---0----0--0---0-0--7----7--0--5----5---5---0-0-|
|-2----2---0----0--0---0-0--7----7--0--3----3---3---0-0-|
|-2----2---0----0--0---0-0--7----7--0---------------0-0-|


|------------------0------------------------------------|
|------------------3------------------------------------|
|------------------2-------------------5----5---5-------|
|-2----2---0----0--0---0-0--7----7--0--5----5---5---0-0-|
|-2----2---0----0--0---0-0--7----7--0--3----3---3---0-0-|
|-2----2---0----0--0---0-0--7----7--0---------------0-0-|

[ Tab from: http://www.guitartabs.cc/tabs/s/smile_empty_soul/bottom_of_a_bottle_tab_ver_10.html ]
|------------------0--------------------------------(5)-(5)-(5)-(5)-|
|------------------3--------------------------------(5)-(5)-(5)-(5)-|
|------------------2-------------------5----5---5---(5)-(5)-(5)-(5)-|
|-2----2---0----0--0---0-0--7----7--0--5----5---5-------------------|
|-2----2---0----0--0---0-0--7----7--0--3----3---3-------------------|
|-2----2---0----0--0---0-0--7----7--0-------------------------------|


|------------------0------------------------------------|
|------------------3------------------------------------|
|------------------2-------------------5----5---5-------|
|-2----2---0----0--0---0-0--7----7--0--5----5---5---0-0-|
|-2----2---0----0--0---0-0--7----7--0--3----3---3---0-0-|
|-2----2---0----0--0---0-0--7----7--0---------------0-0-|


|------------------0------------------------------------|
|------------------3------------------------------------|
|------------------2-------------------5----5---5-------|
|-2----2---0----0--0---0-0--7----7--0--5----5---5---0-0-|
|-2----2---0----0--0---0-0--7----7--0--3----3---3---0-0-|
|-2----2---0----0--0---0-0--7----7--0---------------0-0-|


|------------------0------------------------------------|
|------------------3------------------------------------|
|------------------2-------------------5----5---5-------|
|-2----2---0----0--0---0-0--7----7--0--5----5---5---0-0-|
|-2----2---0----0--0---0-0--7----7--0--3----3---3---0-0-|
|-2----2---0----0--0---0-0--7----7--0---------------0-0-|


|------------------0------------------------------------|
|------------------3------------------------------------|
|------------------2-------------------5----5---5-------|
|-2----2---0----0--0---0-0--7----7--0--5----5---5---0-0-|
|-2----2---0----0--0---0-0--7----7--0--3----3---3---0-0-|
|-2----2---0----0--0---0-0--7----7--0---------------0-0-|

Bridge: (Clean)
PM First 3x then slowly release

|-------------------------------------------------------------|
|-------------------------------------------------------------|
|-------------------------------5-5-5-5-5-5-5-5-5-4---5-4---4-|
|-2-2-2-2-2-2-2-2-2-2-2-2-2-2-2-5-5-5-5-5-5-5-5-5-5-5-5-5-5-5-|
|-2-2-2-2-2-2-2-2-2-2-2-2-2-2-2-3-3-3-3-3-3-3-3-3-3-3-3-3-3-3-|
|-2-2-2-2-2-2-2-2-5-5-5-5-5-5-5-------------------------------|

|-------------------------------------------------------------|
|-------------------------------------------------------------|
|-------------------------------5-5-5-5-5-5-5-5-5-4---5-4---4-|
|-2-2-2-2-2-2-2-2-2-2-2-2-2-2-2-5-5-5-5-5-5-5-5-5-5-5-5-5-5-5-|
|-2-2-2-2-2-2-2-2-2-2-2-2-2-2-2-3-3-3-3-3-3-3-3-3-3-3-3-3-3-3-|
|-2-2-2-2-2-2-2-2-5-5-5-5-5-5-5-------------------------------|

|-------------------------------------------------------------|
|-------------------------------------------------------------|
|-------------------------------5-5-5-5-5-5-5-5-5-4---5-4---4-|
|-2-2-2-2-2-2-2-2-2-2-2-2-2-2-2-5-5-5-5-5-5-5-5-5-5-5-5-5-5-5-|
|-2-2-2-2-2-2-2-2-2-2-2-2-2-2-2-3-3-3-3-3-3-3-3-3-3-3-3-3-3-3-|
|-2-2-2-2-2-2-2-2-5-5-5-5-5-5-5-------------------------------|

|-----------------------------------------------------------|
|-----------------------------------------------------------|
|-------------------------------5-5-5-5-5-5-5-5-5-4-4-4-----|
|-2-2-2-2-2-2-2-2-2-2-2-2-2-2-2-5-5-5-5-5-5-5-5-5-5-5-5-x-x-|
|-2-2-2-2-2-2-2-2-2-2-2-2-2-2-2-3-3-3-3-3-3-3-3-3-3-3-3-x-x-|
|-2-2-2-2-2-2-2-2-5-5-5-5-5-5-5-------------------------x-x-|

Chorus: (Distortion)

|------------------0------------------------------------|
|------------------3------------------------------------|
|------------------2-------------------5----5---5-------|
|-2----2---0----0--0---0-0--7----7--0--5----5---5---0-0-|
|-2----2---0----0--0---0-0--7----7--0--3----3---3---0-0-|
|-2----2---0----0--0---0-0--7----7--0---------------0-0-|


|------------------0------------------------------------|
|------------------3------------------------------------|
|------------------2-------------------5----5---5-------|
|-2----2---0----0--0---0-0--7----7--0--5----5---5---0-0-|
|-2----2---0----0--0---0-0--7----7--0--3----3---3---0-0-|
|-2----2---0----0--0---0-0--7----7--0---------------0-0-|


|------------------0------------------------------------|
|------------------3------------------------------------|
|------------------2-------------------5----5---5-------|
|-2----2---0----0--0---0-0--7----7--0--5----5---5---0-0-|
|-2----2---0----0--0---0-0--7----7--0--3----3---3---0-0-|
|-2----2---0----0--0---0-0--7----7--0---------------0-0-|


|------------------0--------------------------------(5)-(5)-(5)-(5)-|
|------------------3--------------------------------(5)-(5)-(5)-(5)-|
|------------------2-------------------5----5---5---(5)-(5)-(5)-(5)-|
|-2----2---0----0--0---0-0--7----7--0--5----5---5-------------------|
|-2----2---0----0--0---0-0--7----7--0--3----3---3-------------------|
|-2----2---0----0--0---0-0--7----7--0-------------------------------|


|------------------0------------------------------------|
|------------------3------------------------------------|
|------------------2-------------------5----5---5-------|
|-2----2---0----0--0---0-0--7----7--0--5----5---5---0-0-|
|-2----2---0----0--0---0-0--7----7--0--3----3---3---0-0-|
|-2----2---0----0--0---0-0--7----7--0---------------0-0-|


|------------------0------------------------------------|
|------------------3------------------------------------|
|------------------2-------------------5----5---5-------|
|-2----2---0----0--0---0-0--7----7--0--5----5---5---0-0-|
|-2----2---0----0--0---0-0--7----7--0--3----3---3---0-0-|
|-2----2---0----0--0---0-0--7----7--0---------------0-0-|


|------------------0------------------------------------|
|------------------3------------------------------------|
|------------------2-------------------5----5---5-------|
|-2----2---0----0--0---0-0--7----7--0--5----5---5---0-0-|
|-2----2---0----0--0---0-0--7----7--0--3----3---3---0-0-|
|-2----2---0----0--0---0-0--7----7--0---------------0-0-|


|------------------0------------------------------------|
|------------------3------------------------------------|
|------------------2-------------------5----5---5-------|
|-2----2---0----0--0---0-0--7----7--0--5----5---5---0-0-|
|-2----2---0----0--0---0-0--7----7--0--3----3---3---0-0-|
|-2----2---0----0--0---0-0--7----7--0---------------0-0-|

Outro: (Distortion)

|---------------------------------------------------|
|---------------------------------------------------|
|---------5---5--5----------------------------------|
|-2---0---5---5--5-5----5/7---7---7---x-x-7/9-9-7-5-|
|-2---0---3---3--3-5----5/7---7---7---x-x-7/9-9-7-5-|
|-2---0------------5----5/7---7---7---x-x-7/9-9-7-5-|

|------------------------------------------------------|
|------------------------------------------------------|
|---------5---5--5-------------------------------------|
|-2---0---5---5--5-5----5/7---7---7---x-x-7/9-9-7-5-2~-|
|-2---0---3---3--3-5----5/7---7---7---x-x-7/9-9-7-5-2~-|
|-2---0------------5----5/7---7---7---x-x-7/9-9-7-5-2~-|

This is damn near perfect although i'm sure i didn't tab the rythm out that good. Just
play along with the song you'll get it. If you want to see the video of SES playing this
song live go to: http://search.aol.com/aolcom/video?query=smile+empty+soul&invocationType=videoTab
Comments