Smile Empty Soul - Bottom Of A Bottle Chords & Tabs

 

Bottom Of A Bottle Chords & Tabs

Smile Empty Soul Chords & Tabs

Version: 1 Type: Tab 2 ratings
1 star 2 stars 3 stars 4 stars 5 stars
comments

Bottom Of A Bottle Tab

the other one that i tried on here didnt sound exactly right...this ones not perfect but it sounds ok.
the other guy had the intro about as good as it gets so these are just the chords
regular tuning...
[ Tab from: http://www.guitartabs.cc/tabs/s/smile_empty_soul/bottom_of_a_bottle_tab.html ]
intro...  play a few times
-----------------------------------|--------------------------------
-----------------------------------|--------------------------------
-----------------------------------|--------------------------------
-4-2-5-5-5-5-5--7--7--7-7/9--7-5---|--------------------------------
-4-2-5-5-5-5-5--7--7--7-7/9--7-5---|--------------------------------
-2-0-3-3-3-3-5--7--7--7-7/9--7-5---|--------------------------------

chorus...   play a few times    finish with this
----------------------|---------------------------------------------
----------------------|---------------------------------------------
----------------------|---------------------------------------------
-4----2----5----5-----|--9---7---2---5------------------------------
-4----2----5----5-----|--9---7---2---5------------------------------
-2----0----3----5-----|--9---5---0---3------------------------------

close song with intro x2
Comments