Smile Empty Soul - Bottom Of A Bottle Chords & Tabs

 

Bottom Of A Bottle Chords & Tabs

Smile Empty Soul Chords & Tabs

Version: 2 Type: Bass Tab 0 ratings
1 star 2 stars 3 stars 4 stars 5 stars
comments

Bottom Of A Bottle Bass Tab

Smile Empty Soul - Bottom of a Bottle (Bass)

It's a drop D tuning guys, string ADG is all half step down, I'm not sure about the last 
string wut chord is it but they don't use that string in the song so that a no problem

~ = slide
X= no sound
( ) = The # in the colon mean how many times u hit it

After intro

G -------------------------------------------------------|
D -------------------------------------------------------| 4 times
A -------------------------------------------------------|
D -2-0-10~5~7-7-7-X-X-X-7~9~5----------------------------|

Verse 1

G -------------------------------------------------------|
D -------------------------------------------------------| 4 times
A -------------------------------------------------------|
D -2-0-10~5~7-7-7-X-X-X-7~9~5----------------------------|

Pre-Chorus

G ------------------------------------------------------|
D ------------------------------------------------------| 1 times
A ----------------0(12)-3(8)----------------------------|
D -2(12)-0(12)------------------------------------------|

Chorus

G ------------------------------------------------------|
D ------------------------------------------------------| 4 times
A ------------------------------------------------------|
D -2-2-0-0-0-7-7-0-10-10-10-10--------------------------|

Verse 2

G -------------------------------------------------------|
D -------------------------------------------------------| 4 times
A -------------------------------------------------------|
D -2-0-10~5~7-7-7-X-X-X-7~9~5----------------------------|

Pre-Chorus

G -------------------------------------------------------|
D -----------------------------------------------------1-| times
A ----------------0(12)-3(8)-----------------------------|
D -2(12)-0(12)-------------------------------------------|

Chorus

G ------------------------------------------------------|
D ------------------------------------------------------| 4 times
A ------------------------------------------------------|
D -2-2-0-0-0-7-7-0-10-10-10-10--------------------------|

Chorus Interrupter
[ Tab from: http://www.guitartabs.cc/tabs/s/smile_empty_soul/bottom_of_a_bottle_btab_ver_2.html ]
G -----------------------------------------------------|
D -----------------------------------------------------|
A -----------------------------------------------------|
D -0-0-0-0---------------------------------------------|

Chorus

G ------------------------------------------------------|
D ------------------------------------------------------| 4 times
A ------------------------------------------------------|
D -2-2-0-0-0-7-7-0-10-10-10-10--------------------------|

Bridge

G -----------------------------------------------------|
D -----------------------------------------------------|   3times
A ----------------3(15)-0------------------------------|
D -2(8)~5(7)-------------------------------------------|

G ------------------------------------------------------|
D ------------------------------------------------------|
A ----------------3(15)-X-X-----------------------------|
D -2(8)~5(7)--------------------------------------------|

Chorus

G ------------------------------------------------------|
D ------------------------------------------------------| 4 times
A ------------------------------------------------------|
D -2-2-0-0-0-7-7-0-10-10-10-10--------------------------|


Chorus Interrupter

G -----------------------------------------------------|
D -----------------------------------------------------|
A -----------------------------------------------------|
D -0-0-0-0---------------------------------------------|

Chorus

G ------------------------------------------------------|
D ------------------------------------------------------| 4 times
A ------------------------------------------------------|
D -2-2-0-0-0-7-7-0-10-10-10-10--------------------------|

Outro

G ------------------------------------------------------|
D ------------------------------------------------------|
A ------------------------------------------------------|
D -2-0-10-10-10~5~7-7-7-X-X-~7~9~5----------------------|

G ------------------------------------------------------|
D ------------------------------------------------------|
A ------------------------------------------------------|
D -2-0-10-10-10~5~7-7-7-X-X~7~9~5~2-X-------------------|
Comments