Smashing Pumpkins - Zero Chords & Tabs

 

Zero Chords & Tabs

Smashing Pumpkins Chords & Tabs

Version: 2 Type: Chords 0 ratings
1 star 2 stars 3 stars 4 stars 5 stars
comments

Zero Chords

   
Zero
Words and Music by Billy Corgan
Tune Down 1/2 Step:   Eb Ab Db Gb Bb Eb

THIS IS A REAL GOOD SONG, THAT THIS TAB IS 100% CORRECT. ROCK ON! CORGAN RULZ

Fig 1
 C B  E             C   B    E
|----------------------------------------|
|----------------------------------------|
|--5-4--------------5-5-4-4--------------|
|------2-2-2-2-2-2-----------2-2-2-2-----|
|--3-2-2-2-2-2-2-2--3-3-2-2--2-2-2-2-----|
|------0-0-0-0-0-0-----------0-0-0-0-----|

Fig 2
 E
|----------------------------------------|
|----------------------------------------|
|-9-----11-----9--------12-12-11-11--7---|
|----------------------------------------|
|-7-----9------7--------10-12-9--9---5---|
|---0-0---0-0-----0-0--------------------|

Fig3
|-----------------------------------|
|-----------------------------------|
|---------------5--5-4--------------|
|----------------------2-2-2-2-2-2--|
|-3-----2-------3--3-2-2-2-2-2-2-2--|
|---1-3---0-0-0--------0-0-0-0-0-0--|

In - Fig1>3x
[ Tab from: http://www.guitartabs.cc/tabs/s/smashing_pumpkins/zero_crd_ver_2.html ]
V1 - Fig1
     My reflection, dirty mirror
     There's no connection to myself
     I'm your lover, I'm your zero
     I'm the face in your dreams of glass

Br1-  Fig2
      So save for prayers
      For when we're really gonna need em
      Throw all your cares and fly
      Wanna go for a ride?
                          Fig1
C1 - Fig1
     She's the one for me
     She's all I really need  oh yeah
     cause she's the one for me
     E                            E
     Emptiness is loneliness, and loneliness is cleanliness
         E
     And cleanliness is godliness, and God is empty just like me

V2 - Fig1
     Intoxicated with the madness, I'm in love with my sadness
     Bullshit fakers, enchanted kingdoms
     The fashion victims chew their charcoal teeth

Br2 - Fig2
      I never let on that I was on a sinking ship
      I never let on that I was down

Solo - Fig3>4x

Br3 -  Fig2
       You blame yourself, for what you can't ignore
       You blame yourself for wanting more

C2 - Fig1
     She's the one for me
     She's all I really need oh yeah
     She's the one for me
     She's my one and only

TABBED BY LOSERZERO119
Comments