Smashing Pumpkins - Zero Chords & Tabs

 

Zero Chords & Tabs

Smashing Pumpkins Chords & Tabs

Version: 3 Type: Bass Tab

Zero Bass Tab

intro:

the first part is only guitar.. then is this:

4.-----------------------|
3.-----------------------| X4
2.-----------------------|
1.-8/7-7-xxxx-8-8/7-xxxx-|

verse:

4.-------------------------|
3.-------------------------| X4
2.-------------------------|
1.-8/7-0-0-0-0-8-8/7-0-0-0-|

then:
[ Tab from: http://www.guitartabs.cc/tabs/s/smashing_pumpkins/zero_btab_ver_3.html ]
4.---------------------|
3.---------------------|
2.-7---9---7---10\9--5-|
1.--00--00--00---------|

then the emptyness is lonelyness part:

4.----------------------------------|
3.----------------------------------|
2.----------------------------------|
1.--8-8-8---8-8-8---8-8-8---8-8-----|

the solo part:

4.---------------------------|
3.---------------------------|
2.-----7-9-------------------|
1.-5-7-----5-0-0-8-8/7-7-0-0-|

there... by palos... elpalos_@hotmail.com
please rate... thank you...