Smashing Pumpkins - Zero Chords & Tabs

 

Zero Chords & Tabs

Smashing Pumpkins Chords & Tabs

Version: 2 Type: Bass Tab 0 ratings
1 star 2 stars 3 stars 4 stars 5 stars
comments

Zero Bass Tab

Artist: Smashing Pumpkins
Title: ZERO
Tabbed By: T.Naughton
Any questions email me at RoundHouseKick33@aol.com

Intro/Verse (intro is right after guitar)
G----------------------------------------
D----------------------------------------
A-3-22-----33-22------3-22----33-22------
E-----0000------00000-----0000-----00000-

G----------------------------------------
D----------------------------------------
A-3-22-----33-22------3-22----33-22------
E-----0000------00000-----0000-----00000-
Chorus
G----------------------------------------
D----------------------------------------
A-7----9---7----10---9--5----------------
E--00---00---00---00--0--0---------------
[ Tab from: http://www.guitartabs.cc/tabs/s/smashing_pumpkins/zero_btab_ver_2.html ]
G----------------------------------------
D----------------------------------------
A-7----9---7----10---9--5----------------
E--00---00---00---00--0--0---------------

Bridge 

G----------------------------------------
D----------------------------------------
A--777--777--777--77---------------------
E----------------------------------------

Ending Verse

G----------------------------------------
D----------------------------------------
A--3-22-----33-22------------------------ 
E------0000------------------------------ 


Verse x 3
Chorus x 2

Verse x 3 
Bridge x 1 
Verse x 3 
Chorus x 2

Verse x 3 
Chorus x 2 
Verse x 1.5 play once then only first half
Ending Verse x 1 


This Song KICKS ASS!!! your welcome for the correct bass Tab For ZERO
Comments