Smashing Pumpkins - Untitled Chords & Tabs

 

Untitled Chords & Tabs

Smashing Pumpkins Chords & Tabs

Version: 1 Type: Tab 0 ratings
1 star 2 stars 3 stars 4 stars 5 stars
comments

Untitled Tab

   
this is tuned in Eb like most of the songs after siamese dream.
for questions my ultimate-guitar screen name is tristessa but being the idiot I am i cant find out
how to login cuz every time i do it was page not found. Anyways for strumming i Think you should
listen to the song and figure out yourself i tried to put it as best i could here but
if you want accuracy then you need look at a book with notes.
[ Tab from: http://www.guitartabs.cc/tabs/s/smashing_pumpkins/untitled_tab.html ]
This is the verse
Eb-0-/-0-0--0-0-0----0-/-0-0--0-0-0-------------------
Bb-0-/-0-0--0-0-0----0-/-0-0--0-0-0---0-0-00---0-0----
Gb-6-/-8-8--8-8-8----6-/-8-8--8-8-8---6-6-66---1-1---- x2  
Db-7-/-9-9--9-9-9----7-/-9-9--9-9-9---7-7-77---4-4---- 
Ab-7-/-9-9--9-9-9----7-/-9-9--9-9-9---7-7-77---2-2---- 
Eb-5-/-7-7--7-7-7----5-/-7-7--7-7-7---5-5-55---0-0----  
    A   B            A B               A        E      
The 1st chorus is simple so i'll use chords.
1st Chorus: E  B A  E  B A  E A

play this verse part again
Eb-0-/-0-0--0-0-0----0-/-0-0--0-0-0-------------------
Bb-0-/-0-0--0-0-0----0-/-0-0--0-0-0---0-0-00---0-0----
Gb-6-/-8-8--8-8-8----6-/-8-8--8-8-8---6-6-66---1-1---- x2  
Db-7-/-9-9--9-9-9----7-/-9-9--9-9-9---7-7-77---4-4---- 
Ab-7-/-9-9--9-9-9----7-/-9-9--9-9-9---7-7-77---2-2---- 
Eb-5-/-7-7--7-7-7----5-/-7-7--7-7-7---5-5-55---0-0----  
    A   B            A B               A        E   
and onto the second chorus:
Eb-0--0--0--0-------0-0------------0----
Bb-0--0--0--0-------0-0--------0-0-0----
Gb-9--9--9--9-------6-6--------1-1-1---- play this twice
Db-11-11-11-11------7-7--------4-4-4----
Ab-11-11-11-11------7-7--------2-2------
Eb-9--9--9--9-------5-5--------0-0------
        C#m         A           E
This is just the second guitar parts to get you started as for Billy's continuous octave
solo i am not good to figure that out. yet. anyways the reast of the song is pretty much
the verse chords
Comments