Smashing Pumpkins - Tribute To Johnny Chords & Tabs

 

Tribute To Johnny Chords & Tabs

Smashing Pumpkins Chords & Tabs

Version: 2 Type: Bass Tab 0 ratings
1 star 2 stars 3 stars 4 stars 5 stars
comments

Tribute To Johnny Bass Tab

   
Title: Tribute to Johnny
Artist: Smashing Pumpkins
Album: The Aeroplane Flies High box set 
or Zero single
Tuning: Eb Ab Db Gb

Riff 1A
G|------------------|
D|----------2--5----|
A|-----2--5---------|
E|3--5--------------|

Riff 1B
G|---------------------|
D|---------------------|
A|-------7--------7h5--|
E|0--0-0---0--0-0------|
[ Tab from: http://www.guitartabs.cc/tabs/s/smashing_pumpkins/tribute_to_johnny_btab_ver_2.html ]
Follwed by:
Riff 2
G|-----------------------------------------------|
D|------3-----------------------3----------------|
A|------------3-------3-3-------------3----------|
E|3-4-5---3-4---3-4-5-----3-4-5---3-4---3-4-5-1--|

Then play Riff 1A and then Riff 2

Then we come to your time to show some skill
and play this cool bass solo....which is very fast!! Good Luck=)

Riff 3
G|-------------------------------|
D|------------5-6-7-------5-6-7--|
A|------5-6-7-------5-6-7--------|
E|5-6-7--------------------------|

Then we get the drum solo, then guitars screw around.
When they are done slide down to E play Riff 1, and end on E

--------------
Tab was made by: Nathan Amber, take it if you want it...just enjoy..
hope you like it!! E-mail me if you have a better way of playing it!



Comments