Smashing Pumpkins - Tonight Tonight Chords & Tabs

 

Tonight Tonight Chords & Tabs

Smashing Pumpkins Chords & Tabs

Version: 3 Type: Tab 0 ratings
1 star 2 stars 3 stars 4 stars 5 stars
comments

Tonight Tonight Tab

   
Tonight Tonight
   By The Smashing Pumpkins

Intro

   `^` ``````````````
e]-3----------3--3--3--]-0-----------0--0--0--]
B]-3----------3--3--3--]-0-----------0--0--0--]
G]-0----------0--0--0-.]-0-----------0--0--0-.] 
D]-0----------0--0--0-.]-2-----------2--2--2-.] Play 2 times
A]-2----------2--2--2--]-2-----------2--2--2--]
E]-3---3------3333333--]-0---0-------0000000--]

   ``^ ``^ ` ^ ^`^ 
e]-3---3---2-------]
B]-3---3---3-------]
G]-0---0---2-------]
D]-2---0---0-------] Play 3 times
A]-3---2-----------]
E]-----------------]
   
e]-------------------]
B]--0--0--0-0--0--0--]
G]---0--0----0--0---.]
D]---------0--0--0--.]
A]-3--3--3-----------]
E]-------------------]

Verse 1

e]-------------------]
B]--0--0--0-0--0--0--]
G]---0--0----0--0---.]
D]---------0--0--0--.] Play 3 times
A]-3--3--3-----------]
E]-------------------]

e]-------------------]
B]--0--0--0-0--0--0--]
G]---0--0----0--0---.]
D]------------------.] Play 2 times
A]-2--2--2-5--5--5---]
E]-------------------]

Chorus

e]-------------------]
B]--0--0--0-0--0--0--]
G]---0--0----0--0---.]
D]---------0--0--0--.]
A]-3--3--3-----------]
E]-------------------]

Play strum pattern twice per chord 
G``^ G/F#``^ Em``^ Em``^ Am``^ Am``^ C``^ C``^  Play 2 times

   ``^ ``^ ` ^ ^`^ 
e]-3---3---2-------]
B]-3---3---3-------]
G]-0---0---2-------]
D]-2---0---0-------] Play 3 times
A]-3---2-----------]
E]-----------------]

Em```````` A````````
[ Tab from: http://www.guitartabs.cc/tabs/s/smashing_pumpkins/tonight_tonight_tab_ver_3.html ]
   ``^ ``^ ` ^ ^`^
e]-3---3---2-------]
B]-3---3---3-------]
G]-0---0---2-------]
D]-2---0---0-------] Play 3 times
A]-3---2-----------]
E]-----------------]

G```````` 

   ```````   `^` ``````````````
e]-3--3--3-]-3----------3--3--3-]-0----------0--0--0--]
B]-3--3--3-]-3----------3--3--3-]-0----------0--0--0--]
G]-0--0--0-]-0----------0--0--0-]-0----------0--0--0-.]
D]-0--0--0-]-0----------0--0--0-]-2----------2--2--2-.]
A]-2--2--2-]-2----------2--2--2-]-2----------2--2--2--]
E]-3333333-]-3---3------3333333-]-0---0------0000000--]

Verse 2

Play strum pattern twice per chord
G``^ Em``^ G``^ Em``^

Chorus

e]-------------------]
B]--0--0--0-0--0--0--]
G]---0--0----0--0---.]
D]---------0--0--0--.]
A]-3--3--3-----------]
E]-------------------]

Play strum pattern twice per chord 
G``^ G/F#``^ Em``^ Em``^ Am``^ Am``^ C``^ C``^  Play 2 times

   ``^ ``^ ` ^ ^`^ 
e]-3---3---2-------]
B]-3---3---3-------]
G]-0---0---2-------]
D]-2---0---0-------] Play 3 times
A]-3---2-----------]
E]-----------------]

Em```````` A````````

   ``^ ``^ ` ^ ^`^ 
e]-3---3---2-------]
B]-3---3---3-------]
G]-0---0---2-------]
D]-2---0---0-------]
A]-3---2-----------]
E]-----------------]

Play strum pattern twice per chord 
G``^ G/F#``^ Em``^ Em``^ Am``^ Am``^ C``^ C``^
G``^ G/F#``^ Em``^ Em``^

Am` C`

e]-------------------]
B]--0--0--0-0--0--0--]
G]---0--0----0--0---.]
D]---------0--0--0--.]
A]-3--3--3-----------]
E]-------------------]

G``^ G/F#``^ Em`
Comments