Smashing Pumpkins - Tonight Tonight Chords & Tabs

 

Tonight Tonight Chords & Tabs

Smashing Pumpkins Chords & Tabs

Version: 2 Type: Tab 0 ratings
1 star 2 stars 3 stars 4 stars 5 stars
comments

Tonight Tonight Tab

Tonight, Tonight Complete Score As Recorded By The Smashing Pumpkins
Words And Music By Billy Corgan


||-------||-----------------|-------------------|
||---0-0-||*-0--------------|------3-(3)--3-----|
||---0-0-||--0--------------|-0--0-0-(0)--0-----|
||---0-0-||--0--0-0-0-0-0-0-|-0--0-0-(0)--0-0-0-|
||---2-2-||*-2--2-2-2-2-2-2-|-3--3-3-(3)--3-2-2-|
||---3-3-||--3--3-3-3-3-3-3-|-3--3-3-(3)--3-3-3-|


 
|----------------|--------------------|
|-0--------------|------3-3--(3)------|
|-0--------------|-0--0-0-0--(0)------|
|-0--0-0-0-0-0-0-|-0--0-0-0--(0)-2-2--|
|-2--2-2-2-2-2-2-|-3--3-3-3--(3)-2-2--|
|-3--3-3-3-3-3-3-|-3--3-3-3--(3)-0-0--|


                                                       
|----------------|-------------------|----------------|----------------------||
|-0--------------|------3-(3)--3-----|-0--------------|------3-(3)--3-------*||
|-0--------------|-0--0-0-(0)--0-----|-0--------------|-0--0-0-(0)--0--------||
|-2--2-2-2-2-2-2-|-2--2-2-(2)--2-2-2-|-2--2-2-2-2-2-2-|-2--2-2-(2)--2-2-2----||
|-2--2-2-2-2-2-2-|-3--3-3-(3)--3-2-2-|-2--2-2-2-2-2-2-|-3--3-3-(3)--3-2-2---*||
|-0--0-0-0-0-0-0-|-0--0-0-(0)--0-0-0-|-0--0-0-0-0-0-0-|-0--0-0-(0)--0-0-0----||




|-----------------||------------------|------0-(0)---------||-----------------|
|------3-(3)-3----||*-3----3-0--0-----|-3----3-(3)--3-3-3-*||-3----3-3--3-----|
|-0--0-0-(0)-0----||--0----0-0--0-----|-2--2-2-(2)--2-0-0--||-0----0-0--0-2---|
|-2--2-2-(2)-2--5-||--2----2-0--0-0-0-|-0--0-0-(0)--0-2-2--||-2----2-0--0-0---|
|-3--3-3-(3)-3--3-||*-3----3-2--2-0-0-|---------------3-3-*||-3----3-2--2-0---|
|-0--0-0-(0)-0--0-||------------------|--------------------||-----------------|




|------0-(0)--0---|----------------|-----------------||
|-3----3-(3)--3---|-0--------------|------3-(3)-3----||
|-2--2-2-(2)--2---|-0--------------|-0--0-0-(0)-0--0-||
|-0--0-0-(0)--0-0-|-0--0-0-0-0-0-0-|-0--0-0-(0)-0--0-||
|---------------2-|-2--2-2-2-2-2-2-|-3--3-3-(3)-3----||
|---------------3-|-3--3-3-3-3-3-3-|-3--3-3-(3)-3----||




||------------------|------------------||
||*---0-----0-------|-----0---0-------*||
||------0-----0---0-|---0-------0---0--||
||------------------|-0-----0-----0----||
||*-3-----3-----3---|-----------------*||
||------------------|------------------||



     
Verse One
||------------------|-----------------|
||*---0-----0-------|---0-----0-------|
||------0-----0---0-|-----0-----0---0-|
||------------------|-0-----0-----0---|
||*-3-----3-----3---|-----------------|
||------------------|-----------------|




|-----------------|-----------------|-----------------|-----------------|
|---0-----0-------|-----0---0-------|---0-----0-------|---0-----0-------|
|-----0-----0---0-|---0-------0---0-|-----0-----0---0-|-----0-----0---0-|
|-----------------|-0-----0-----0---|-----------------|-0-----0-----0---|
|-3-----3-----3---|-----------------|-3-----3-----3---|-----------------|
|-----------------|-----------------|-----------------|-----------------|



|-----------------|---------------------||
|---0-----0-------|----0------0--------*||
|-----0-----0---0-|------0------0----0--||
|-----------------|---------------------||
|-7-----7-----7---|-10-----10-----10---*||
|-----------------|---------------------||




||------------------|------------------||
||*---0-----0-------|---0-----0-------o||
||------0-----0---0-|-----0-----0---0--||
||------------------|-0-----0-----0----||
||*-3-----3-----3---|-----------------o||
||------------------|------------------||


                                        Pre-Chorus
     
|-----------------|-------------------||-3--3-3-3-3----0-0-|
|---0-----0-------|---0-----0---------||-3--3-3-3-3----0-0-|
|-----0-----0---0-|-----0-----0---0-0-||-0--0-2-2-2----0-0-|
|-----------------|-0-----0-----0-0-0-||-0--0-0-0-0----2-2-|
|-3-----3-----3---|---------------2-2-||-2--2-0-0-0----2-2-|
|-----------------|---------------3-3-||-3--3-2-2-2----0-0-|




|-0--0--------0-0-|-0----0-0-0-3-3-|-3--3-3-3-3-3-----|-3--3-3-3-3--3-0-0--|
|-0--0--------1-1-|-1----1-1-1-1-1-|-1--1-1-1-1-1-----|-3--3-3-3-3--3-0-0--|
|-0-----0-0-0-2-2-|-2----2-2-2-0-0-|-0--0-0-0-0-0-0-0-|-0--0-2-2-2--2-0-0--|
|-2-----2-2-2-2-2-|-2----2-2-2-2-2-|-2--2-2-2-2-2-0-0-|-0--0-0-0-0--0-2-2--|
|-2-----2-2-2-0-0-|-0----0-0-0-3-3-|-3--3-3-3-3-3-2-2-|-2--2-0-0-0--0-2-2--|
|-0-----0-0-0-----|----------------|--------------0-0-|-3--3-2-2-2--2-0-0--|




|-0--0-0-0-0-0-0-0-|-0--0-0-0-0-0-3-3-|-3--3-3-3-3-3-0-0-|
|-0--0-0-0-0-0-1-1-|-1--1-1-1-1-1-1-1-|-1--1-1-1-1-1-3-3-|
|-0--0-0-0-0-0-0-0-|-2--2-2-2-2-2-0-0-|-0--0-0-0-0-0-0-0-|
|-2--2-2-2-2-2-2-2-|-2--2-2-2-2-2-2-2-|-2--2-2-2-2-2-2-2-|
|-2--2-2-2-2-2-0-0-|-0--0-0-0-0-0-3-3-|-3--3-3-3-3-3-3-3-|
|-0--0-0-0-0-0-----|------------------|------------------|


                       Chorus                    $
                                                           3x
|-0-0-0-0-0-0-0-0-0-||------------------|------0-(0)-------||
|-3-3-3-3-3-3-3-3-3-||*-3----3-3----3-3-|-3--3-3-(3)--3---o||
|-0-0-0-0-0-0-0-0-0-||--0----0-0----2-2-|-2--2-2-(2)--2----||
|-2-2-2-2-2-2-2-2-2-||--2----2-0----0-0-|-0--0-0-(0)--0----||
|-3-3-3-3-3-3-3-3-3-||*-3----3-2----0-0-|-0---------------o||
|-------------------||------------------|------------------||

                                                                  To Coda
[ Tab from: http://www.guitartabs.cc/tabs/s/smashing_pumpkins/tonight_tonight_tab_ver_2.html ]
   
|-------------------|-0--0--0-0-0-0-0-|---------------|------0-(0)--------|
|-0-----------------|-0--0--0-0-0-0-0-|-3----3-3--3-3-|-3--3-3-(3)--3-3---|
|-0-----------------|-2--2--2-2-2-2-2-|-0----0-0--0-0-|-2--2-2-(2)--2-2---|
|-2-2-2-2-2-2-2-2-2-|-2--2--2-2-2-2-2-|-2----2-0--0-0-|-0--0-0-(0)--0-0---|
|-2-2-2-2-2-2-2-2-2-|-0--0--0-0-0-0-0-|-3----3-2--2-2-|-0-----------------|
|-0-0-0-0-0-0-0-0-0-|-----------------|---------------|-------------------|




|-----------------|------0-(0)--------|----------------|---------------------|
|-3----3-3--3-3-3-|-3--3-3-(3)--3-3-3-|-0--------------|------3-(3)-3-3-0-0--|
|-0----0-0--0-2-2-|-2--2-2-(2)--2-2-2-|-0--------------|-0--0-0-(0)-0-0-0-0--|
|-2----2-0--0-0-0-|-0--0-0-(0)--0-0-0-|-0--0-0-0-0-0-0-|-0--0-0-(0)-0-0-0-0--|
|-3----3-2--2-0-0-|-0-----------------|-2--2-2-2-2-2-2-|-3--3-3-(3)-3-3-2-2--|
|-----------------|-------------------|-3--3-3-3-3-3-3-|-3--3-3-(3)-3-3-3-3--|




|----------------|--------------------|-0--------------|
|-0--------------|------3-(3)-3-3-----|-0--------------|
|-0--------------|-0--0-0-(0)-0-0-----|-0--------------|
|-0--0-0-0-0-0-0-|-0--0-0-(0)-0-0-2-2-|-2--2-2-2-2-2-2-|
|-2--2-2-2-2-2-2-|-3--3-3-(3)-3-3-2-2-|-2--2-2-2-2-2-2-|
|-3--3-3-3-3-3-3-|-3--3-3-(3)-3-3-0-0-|-0--0-0-0-0-0-0-|




|-------------------|-0--------------|---------------------||
|------3-(3)--3-----|-0--------------|------3-(3)-3-3-0-0--||
|-0--0-0-(0)--0-----|-0--------------|-0--0-0-(0)-0-0-0-0--||
|-2--2-2-(2)--2-2-2-|-2--2-2-2-2-2-2-|-2--2-2-(2)-2-2-0-0--||
|-3--3-3-(3)--3-2-2-|-2--2-2-2-2-2-2-|-3--3-3-(3)-3-3-2-2--||
|-0--0-0-(0)--0-0-0-|-0--0-0-0-0-0-0-|-0--0-0-(0)-0-0-3-3--||




Verse 2
||-----------------|--------------------|----------------|---------------------|
||*-0--------------|------3-(3)-3-3-----|-0--------------|------3-(3)-3-3------|
||--0--------------|-0--0-0-(0)-0-0-----|-0--------------|-0--0-0-(0)-0-0------|
||--2--2-2-2-2-2-2-|-0--0-0-(0)-0-0-0-0-|-0--0-0-0-0-0-0-|-0--0-0-(0)-0-0-2-2--|
||*-2--2-2-2-2-2-2-|-3--3-3-(3)-3-3-2-2-|-2--2-2-2-2-2-2-|-3--3-3-(3)-3-3-2-2--|
||--0--0-0-0-0-0-0-|-3--3-3-(3)-3-3-3-3-|-3--3-3-3-3-3-3-|-3--3-3-(3)-3-3-0-0--|


                                                      
     
|----------------|-------------------|----------------|-----------------------||
|-0--------------|------3-(3)--3-----|-0--------------|------3-(3)-3-3-0-0---*||
|-0--------------|-0--0-0-(0)--0-----|-0--------------|-0--0-0-(0)-0-0-0-0----||
|-2--2-2-2-2-2-2-|-2--2-2-(2)--2-2-2-|-2--2-2-2-2-2-2-|-2--2-2-(2)-2-2-0-0----||
|-2--2-2-2-2-2-2-|-3--3-3-(3)--3-2-2-|-2--2-2-2-2-2-2-|-3--3-3-(3)-3-3-2-2---*||
|-0--0-0-0-0-0-0-|-0--0-0-(0)--0-0-0-|-0--0-0-0-0-0-0-|-0--0-0-(0)-0-0-3-3----||


 

|-----------------||------------------|------------------||
|------3-(3)------||*---0-----0-------|---0-----0-------*||
|-0--0-0-(0)----0-||------0-----0---0-|-----0-----0---0--||
|-2--2-2-(2)--2---||------------------|-0-----0-----0----||
|-3--3-3-(3)--3---||*-3-----3-----3---|-----------------*||
|-0--0-0-(0)------||------------------|------------------||


                                        Pre-Chorus
  
|-----------------|---------------3-3-||-3--3-3-3-3----0-0-|-0----------0-0-|
|---0-----0-------|---------0-----3-3-||-3--3-3-3-3----0-0-|-0----------1-1-|
|-----0-----0---0-|---0---0---0---0-0-||-0--0-2-2-2----0-0-|-0----0-0-0-2-2-|
|-----------------|-0---0-----0---0-0-||-0--0-0-0-0----2-2-|-2----2-2-2-2-2-|
|-3-----3-----3---|-------------0-2-2-||-2--2-0-0-0----2-2-|-2----2-2-2-0-0-|
|-----------------|---------------3-3-||-3--3-2-2-2----0-0-|-0----0-0-0-----|




|-0--0-0-0-0-0-3-3-|-3--3-3-3-3-3-----|-3--3-3-3-3--3-0-0-|
|-1--1-1-1-1-1-1-1-|-1--1-1-1-1-1-----|-3--3-3-3-3--3-0-0-|
|-2--2-2-2-2-2-0-0-|-0--0-0-0-0-0-0-0-|-0--0-2-2-2--2-0-0-|
|-2--2-2-2-2-2-2-2-|-2--2-2-2-2-2-0-0-|-0--0-0-0-0--0-2-2-|
|-0--0-0-0-0-0-3-3-|-3--3-3-3-3-3-2-2-|-2--2-0-0-0--0-2-2-|
|------------------|--------------0-0-|-3--3-2-2-2--2-0-0-|


                                           D.S. Al Coda

|-0--0-0-0-0-0-0-0-|-0--0-0-0-0-0-3-3-|-3--3-3-3-3-3-0-0-||
|-0--0-0-0-0-0-1-1-|-1--1-1-1-1-1-1-1-|-1--1-1-1-1-1-3-3-||
|-0--0-0-0-0-0-0-0-|-2--2-2-2-2-2-0-0-|-0--0-0-0-0-0-0-0-||
|-2--2-2-2-2-2-2-2-|-2--2-2-2-2-2-2-2-|-2--2-2-2-2-2-2-2-||
|-2--2-2-2-2-2-0-0-|-0--0-0-0-0-0-3-3-|-3--3-3-3-3-3-3-3-||
|-0--0-0-0-0-0-----|------------------|------------------||


    &

||-------3-3-3--3-----|-0--------------|
||*-3--3-3-3-3--3-----|-0--------------|
||--0--0-2-2-2--2-----|-0--0-0-0-0-0-0-|
||--0--0-0-0-0--0-2-2-|-2--2-2-2-2-2-2-|
||*-2--2-0-0-0--0-2-2-|-2--2-2-2-2-2-2-|
||--3--3-2-2-2--2-0-0-|-0--0-0-0-0-0-0-|



                                        5x
|-0------------0-0-|-3------------3-3---||
|-1--1-1-1-1-1-3-3-|-3--3-3-3-3-3-3-3--*||
|-2--2-2-2-2-2-0-0-|-0--0-0-0-0-0-0-0---||
|-2--2-2-2-2-2-2-2-|-2--2-2-2-2-2-0-0---||
|-0--0-0-0-0-0-3-3-|-3--3-3-3-3-3-2-2--*||
|------------------|--------------3-3---||


                                       
                                       
|------3-3-3--3-----|-0--------------|-0--------|-0----||
|-3--3-3-3-3--3-----|-0--------------|-0--------|-3----||
|-0--0-2-2-2--2-----|-0--0-0-0-0-0-0-|-2--------|-0----||
|-0--0-0-0-0--0-2-2-|-2--2-2-2-2-2-2-|-2--------|-2----||
|-2--2-0-0-0--0-2-2-|-2--2-2-2-2-2-2-|-0--------|-3----||
|-3--3-2-2-2--2-0-0-|-0--0-0-0-0-0-0-|----------|------||


    
                                       3x 
||------------------|-------3----------||-3---------------|-0----||
||*---0-------0-----|---0-----0-------*||-0---0---3---3---|-0----||
||------0---0-----0-|-----0-----0---0--||-0---0---2-2-2---|-0----||
||------------------|-0-----0-----0----||-0-0---0-0---0---|-2----||
||*-3-----3-----3---|-----------------*||-2-----0-0-------|-2----||
||------------------|------------------||-3-------2-----0-|-0----||
Comments