Smashing Pumpkins - Tonight Tonight Chords & Tabs

 

Tonight Tonight Chords & Tabs

Smashing Pumpkins Chords & Tabs

Version: 1 Type: Bass Tab 0 ratings
1 star 2 stars 3 stars 4 stars 5 stars
comments

Tonight Tonight Bass Tab

   
Song: Tonight, Tonight
Artist: Smashing Pumpkins
Album: Mellon Collie
Tuning: Eb Ab Db Gb

Nice try whoever did the last tab for this but it was pretty off in most
places. This should be right or at least very close. Make sure you tune 
your bass down 1/2 step.(Eb,Ab,Db,Gb) Also, make sure you take a look at 
the order on the bottom of this tabulature. It will make everything a lot 
easier to understand. There some places where you have to let the note 
ring but I'll let you guys figure that out.

Verse Part 1
(Let each note ring)
Gb|---------------------------|
Db|---------------------------|
Ab|---------------------------|
Eb|3-------------0------------|

Verse Part 2
Gb|-----------------------------------|
Db|-----------------------------------|
Ab|-----------------------------------|
Eb|8-7-10---8-7-10---8-7-10---3-------|
[ Tab from: http://www.guitartabs.cc/tabs/s/smashing_pumpkins/tonight_tonight_btab.html ]
Verse Part 3
Gb|----------------------|
Db|----------------------|
Ab|3-5-3-5-3-5-3-5-7-10--|
Eb|----------------------|

Verse Part 4
Gb|------------------|
Db|------------------|
Ab|3-5-3-5-3-5-7-10--|
Eb|------------------|

Verse Part 5
Gb|------------|
Db|------------|
Ab|3-5-3-5-3-5-|
Eb|------------|

Chorus
Gb|------------------------|
Db|------------------------|
Ab|------------------------|
Eb|3-2-0---5------8--------|

Verse Part 6
Gb|--------------|
Db|--------------|
Ab|--------------|
Eb|8-7-10--8-7-10|

Verse Part 7
Gb|------|
Db|------|
Ab|------|
Eb|8-7-10|

Outro
Gb|----------------|
Db|----------------|
Ab|----------------|
Eb|3----2----0-----|			      

Verse Part 1 X2
Verse Part 2 X1
Verse Part 3 X1
Verse Part 4 X1
Verse Part 5 X1
Chorus X2
Verse Part 2 X1
Verse Part 6 X1
Verse Part 1 X3
Verse Part 5 X1
Chorus X2
Verse Part 2 X1
Verse Part 7 X1
Chorus X6
Outro X1

This tab was made by Christian Mangs. Email me at: Shadow145@hotmail.com 


Comments