Smashing Pumpkins - Today Chords & Tabs

 

Today Chords & Tabs

Smashing Pumpkins Chords & Tabs

Version: 6 Type: Tab 0 ratings
1 star 2 stars 3 stars 4 stars 5 stars
comments

Today Tab

   
Today
written by Billy Corgan
Tabbed by: Tom Martin
This song is in standard tuning(E,A,D,G,B,E)
I don't care what anyone else says if you've seen Vieuphoria, you've seen billy play it
in standard. The order it is played in is at the bottom.

This is the way I play the song in my band and that is why it is for only one guitar.

Intro (clean)
E|-------------------|
A|-------------------|
D|-------------------|
G|-------------------|
B|--11--11--11-----11|
e|11--13--11--15p11--|

Intro (distorted)
E|----------------------------------|
A|----------------------------------|
D|-8-8-8-8--------------------------| Play x2
G|-8-8-8-8-8-8-8-8-6-6-6-6-6-6-6666-|
B|-6-6-6-6-8-8-8-8-6-6-6-6-6-6-6666-|
e|---------6-6-6-6-4-4-4-4-4-4-4444-|
then play
E|-------------------------------------|
A|-------------------------------------|
D|8-8-8-8------------------------------|
G|8-8-8-8-8-8-8-8-10-10-10-10-6-6-6666-|
B|6-6-6-6-8-8-8-8-10-10-10-10-6-6-6666-|
e|--------6-6-6-6-8--8--8--8--4-4-4444-|
then play
E|----------------------------------|
A|----------------------------------|
D|-8-8-8-8--------------------------|
G|-8-8-8-8-8-8-8-8-6-6-6-6-6-6-6666-|
B|-6-6-6-6-8-8-8-8-6-6-6-6-6-6-6666-|
e|---------6-6-6-6-4-4-4-4-4-4-4444-|

Verse (clean)
E|----------------------------------|
A|----------------------------------|
D|-8-8-8-8--------------------------| Play x3
G|-8-8-8-8-8-8-8-8-6-6-6-6-6-6-6666-|
B|-6-6-6-6-8-8-8-8-6-6-6-6-6-6-6666-|
e|---------6-6-6-6-4-4-4-4-4-4-4444-|
then play
E|--------------------------------------------|
A|--------------------------------------------|
D|-8-8-8-8------------------------------------| 
G|-8-8-8-8-8-8-8-8-10-10-10-10-10-10-10101010-|
B|-6-6-6-6-8-8-8-8-10-10-10-10-10-10-10101010-|
e|---------6-6-6-6-8--8--8--8--8--8--8-8-8-8--|

Chorus 1 (distortion)
E|--------------------------------------------|
A|--------------------------------------------|
D|--------------------------------------------| Play x3
G|-3-3-3-3-6-6-6-6-10-10-10-10-10-10-10101010-|
B|-3-3-3-3-6-6-6-6-10-10-10-10-10-10-10101010-|
e|-1-1-1-1-4-4-4-4-8--8--8--8--8--8--8-8-8-8--|
then play
E|--------------------------------------------|
A|--------------------------------------------|
D|-----------------5-5-5-5-10-10-10101010-----|
G|-3-3-3-3-6-6-6-6-5-5-5-5-10-10-10101010-----|
B|-3-3-3-3-6-6-6-6-3-3-3-3-8--8--8-8-8-8------|
e|-1-1-1-1-4-4-4-4----------------------------|
[ Tab from: http://www.guitartabs.cc/tabs/s/smashing_pumpkins/today_tab_ver_6.html ]
Chorus 2 (distortion)
E|----------------------------------|
A|----------------------------------|
D|-----------------8-8-8-8----------| Play x3
G|-3-3-3-3-6-6-6-6-8-8-8-8-8-8-8888-|
B|-3-3-3-3-6-6-6-6-6-6-6-6-8-8-8888-|
e|-1-1-1-1-4-4-4-4---------6-6-6666-|
then play
E|--------------------------------------------|
A|--------------------------------------------|
D|-----------------5-5-5-5-10-10-10101010-----|
G|-3-3-3-3-6-6-6-6-5-5-5-5-10-10-10101010-----|
B|-3-3-3-3-6-6-6-6-3-3-3-3-8--8--8-8-8-8------|
e|-1-1-1-1-4-4-4-4----------------------------|

Bridge (distortion)
E|---------------------------------|
A|---------------------------------|
D|8-8-8-8---------8-8-8-8----------| Play x2
G|8-8-8-8-8-8-8-8-8-8-8-8-6-6-6666-|
B|6-6-6-6-8-8-8-8-6-6-6-6-6-6-6666-|
e|--------6-6-6-6---------4-4-4444-|
then play
E|-------------------------------------|
A|-------------------------------------|
D|8-8-8-8------------------------------|
G|8-8-8-8-8-8-8-8-10-10-10-10-6-6-6666-|
B|6-6-6-6-8-8-8-8-10-10-10-10-6-6-6666-|
e|--------6-6-6-6-8--8--8--8--4-4-4444-|
then play
E|---------------------------------------------------------------------------|
A|---------------------------------------------------------------------------|
D|8-8-8-8--------------------------------------------------------------------|
G|8-8-8-8-8-8-8-8-10-10-10-10-10-10-10101010-10101010101010101010101010101010|
B|6-6-6-6-8-8-8-8-10-10-10-10-10-10-10101010-10101010101010101010101010101010|
e|--------6-6-6-6-8--8--8--8--8--8--8-8-8-8--8-8-8-8-8-8-8-8-8-8-8-8-8-8-8-8-|

Chorus 3 (distortion)
E|--------------------------------------------|
A|--------------------------------------------|
D|--------------------------------------------| Play x3
G|-3-3-3-3-6-6-6-6-10-10-10-10-10-10-10101010-|
B|-3-3-3-3-6-6-6-6-10-10-10-10-10-10-10101010-|
e|-1-1-1-1-4-4-4-4-8--8--8--8--8--8--8-8-8-8--|
then play
E|-----------------|
A|-----------------|
D|-----------------|
G|-3-3-3-3-6-6-6-6-|
B|-3-3-3-3-6-6-6-6-|
E|-1-1-1-1-4-4-4-4-|

Outro (distortion)
E|-------------------------------------|
A|-------------------------------------|
D|8-8-8-8------------------------------| Play x3
G|8-8-8-8-8-8-8-8-10-10-10-10-6-6-6666-|
B|6-6-6-6-8-8-8-8-10-10-10-10-6-6-6666-|
e|--------6-6-6-6-8--8--8--8--4-4-4444-|

E|---------------------------------------|
A|---------------------------------------|
D|8-8-8-8------------------------------8~| 
G|8-8-8-8-8-8-8-8-10-10-10-10-6-6-6666-8~|
B|6-6-6-6-8-8-8-8-10-10-10-10-6-6-6666-6~|
e|--------6-6-6-6-8--8--8--8--4-4-4444---|

Intro(clean)
Intro(distortion)
Verse(clean)
Chorus 1(distortion)
Verse(clean)
Chorus 2(distortion)
Bridge(distortion)
Chorus 3(distortion)
Outro(distortion)

If you have any comments or questions you can e-mail me at pennyroyaltea_8@hotmail.com
Comments