Smashing Pumpkins - Today Live Chords & Tabs

 

Today Live Chords & Tabs

Smashing Pumpkins Chords & Tabs

Version: 1 Type: Bass Tab 0 ratings
1 star 2 stars 3 stars 4 stars 5 stars
comments

Today Live Bass Tab

This is the live version of Today by the Smashing Pumpkins. tabbed from the live video 
from Saturday Night Live.
tabbed by James Iha = God

Intro (starts solo by Billy, then James, D'arcy and Jimmy come in)


Gb------------------------------------------|
Db------------------------------------------|
Ab-6-6-6-66---------------------------------|      x2
Eb----------6-6-6-66-4--4-4-4-44-4-4-4------|

Gb------------------------------------------|
Db------------------------------------------|
Ab-6-6-6-66---------------------------------|      x2
Eb----------6-6-6-66-8-8-8-8-88-4-4-444-----|

Verse

Gb------------------------------------------|
Db------------------------------------------|
Ab-6-6-6-66---------------------------------|      x3
Eb----------6-6-6-66-4--4-4-4-44-4-4-4------|

Last Part of each Verse do this:

Gb------------------------------------------|
Db------------------------------------------|
Ab-6-6-6-66---------------------------------|
Eb----------6-6-6-66-8-8-8-88-8-8-8-8-------|

Chorus

Gb------------------------------------------|
Db------------------------------------------|
Ab------------------------------------------|      x3
Eb-1-1-1-11-4-4-4-44-8-8-8-88-8-8-8-888-----|
          ^those are two 1's
Last Part of each Chorus do this:
[ Tab from: http://www.guitartabs.cc/tabs/s/smashing_pumpkins/today_live_btab.html ]
Gb------------------------------------------|
Db------------------------------------------|
Ab------------------------------------------|
Eb-1-1-1-11-4-4-4-44-3-3-3-33-8-8-8-88------|
          ^those are two 1's
Before James's Solo

Gb------------------------------------------|
Db------------------------------------------|
Ab-6-6-6-66---------------------------------|
Eb----------6-6-6-66-8-8-8-88-4-4-444-------|

'I wanna turn you on...' part

Gb------------------------------------------|
Db------------------------------------------|
Ab------------------------------------------|      x3
Eb-1-1-1-11-4-4-4-44-8-8-8-88-8-8-8-888-----|
          ^those are two 1's
Last part of 'I wanna turn you on...' part

Gb------------------------------------------|
Db------------------------------------------|
Ab------------------------------------------|
Eb-1-1-1-11-4-4-4---------------------------|
          ^those are two 1's
Outro

Gb------------------------------------------|
Db------------------------------------------|
Ab-6-6-6-66---------------------------------|      x4
Eb----------6-6-6-66-8-8-8-88-4-44444-------|

there it is. Today bass tab. This was my first tab, but i updated it, so its not my
first anymore i guess...well it still is. whatever. i tabbed this from Today live on
SNL in 94 i think. its accurate. right now im about to make an actual CORRECT guitar
tab for this song, because all the others are off.-ryan.
Comments