Smashing Pumpkins - Today Chords & Tabs

 

Today Chords & Tabs

Smashing Pumpkins Chords & Tabs

Version: 1 Type: Bass Tab 0 ratings
1 star 2 stars 3 stars 4 stars 5 stars
comments

Today Bass Tab

   
Artist : The Smashing Pumpkins

Song : Today

Tabbed By : Scriv (brian_s67@hotmail.com)

G|--------------------------------|
D|--------------------------------|
A|6-6-6-6-------------------------|
E|--------6-6-6-6-4-4-4-4-4-4-4-4-| x2

G|---------------------------------|
D|---------------------------------|
A|6-6-6-6--------------------------|
E|--------6-6-6-6-8-8-8-8-4-4-4-4--|

G|--------------------------------|
D|--------------------------------|
A|6-6-6-6-------------------------|
E|--------6-6-6-6-4-4-4-4-4-4-4-4-| x4

G|--------------------------------|
D|--------------------------------|
A|6-6-6-6-------------------------|
E|--------6-6-6-6-8-8-8-8-8-8-8-8-|  

G|--------------------------------|
D|--------------------------------|
A|--------------------------------|
E|1-1-1-1-4-4-4-4-8-8-8-8-8-8-8-8-| x3

G|---------------------------------|
D|---------------------------------|
A|------------------------5-5-5-5--|
E|1-1-1-1-4-4-4-4-3-3-3-3----------|

G|--------------------------------|
D|--------------------------------|
A|6-6-6-6-------------------------|
E|--------6-6-6-6-4-4-4-4-4-4-4-4-| x3 
[ Tab from: http://www.guitartabs.cc/tabs/s/smashing_pumpkins/today_btab.html ]
G|--------------------------------|
D|--------------------------------|
A|6-6-6-6-------------------------|
E|--------6-6-6-6-8-8-8-8-8-8-8-8-|

G|---------------------------------|
D|---------------------------------|
A|----------------6-6-6-6----------|
E|1-1-1-1-4-4-4-4---------6-6-6-6--| x3

G|---------------------------------|
D|---------------------------------|
A|------------------------5-5-5-5--|
E|1-1-1-1-4-4-4-4-3-3-3-3----------|

G|-----------------------------------|
D|-----------------------------------|
A|6-6-6-6---------6-6-6-6------------|
E|--------6-6-6-6---------4-4-4-4----|x3

G|--------------------------------|
D|--------------------------------|
A|6-6-6-6-------------------------|
E|--------6-6-6-6-8-8-8-8-8-8-8-8-|

G|--------------------------------|
D|--------------------------------|
A|--------------------------------|
E|1-1-1-1-4-4-4-4-8-8-8-8-8-8-8-8-| x3 

G|----------------|
D|----------------|
A|----------------|
E|1-1-1-1-4-4-4-4-|

G|---------------------------------|
D|---------------------------------|
A|6-6-6-6--------------------------|
E|--------6-6-6-6-8-8-8-8-4-4-4-4--| x4


This Bass Tab Is 100% percent accurate and is in the complete
correct order. i only made this so i knew exactly wot to play and
didn't have to rely on memory when playin this with my band.







Comments