Smashing Pumpkins - To Sheila Chords & Tabs

 

To Sheila Chords & Tabs

Smashing Pumpkins Chords & Tabs

Version: 1 Type: Tab 1 rating
1 star 2 stars 3 stars 4 stars 5 stars
comments

To Sheila Tab

The Smashing Pumpkins - To Sheila
From Adore

Tabbed by: The FLE5H CR1M1NAL

Here's the proper version of To Sheila by the smashing pumpkins.
The second verse is exactly the same as the first. The picking pattern
also appears underneath the strummed chords in the chorus. I didn't 
tab out the banjo part I'm afraid, but I probably wouldn't know where
to begin. Oh yeah, remember to tune down half a step to Eb!!!!


Verse
                                                          
D#||--------------0-----------|--------------0-----------|
A#||--------3--------3-----3--|--------3--------3-----3--|
F#||-----2-----2--------2-----|-----2-----2--------2-----|
C#||--0-----------------------|--0-----------------------|
G#||--------------------------|--------------------------|
D#||--------------------------|--------------------------|


                                                      
--------------0-----------|--------------3-----------|
--------3--------3-----3--|--------1--------1-----1--|
-----2-----2--------2-----|-----------0--------0-----|
--0-----------------------|-----2--------------------|
--------------------------|--0-----------------------|
--------------------------|--------------------------|

			Twilight Fades		   
                                                      
--------------3-----------|--------------3-----------|
--------3--------3-----3--|--------3--------3-----3--|
-----0-----0--------0-----|-----0-----0--------0-----|
--------------------------|--------------------------|
--------------------------|--------------------------|
--3-----------------------|--3-----------------------|

		Through blistered avalons
                                                      
--------------0-----------|--------------3-----------|
--------3--------3-----3--|--------1--------1-----1--|
-----2-----2--------2-----|-----------0--------0-----|
--0-----------------------|-----2--------------------|
--------------------------|--0-----------------------|
--------------------------|--------------------------|

		The skys cruel tourch
                                                      
--------------3-----------|--------------3-----------|
--------3--------3-----3--|--------3--------3-----3--|
-----0-----0--------0-----|-----0-----0--------0-----|
--------------------------|--------------------------|
--------------------------|--------------------------|
--3-----------------------|--3-----------------------|

		On aching autobahn
                                                     
--------------3-----------|--------------3-----------|
--------3--------3-----3--|--------3--------3-----3--|
-----0-----0--------0-----|-----0-----0--------0-----|
--------------------------|--------------------------|
--------------------------|--2-----------------------|
--3-----------------------|--------------------------|
[ Tab from: http://www.guitartabs.cc/tabs/s/smashing_pumpkins/to_sheila_tab.html ]
		Into the uncertain 
                                                                                
--------------3-----------|--------------0----------|--------------0-----------|
--------1--------1-----1--|--------0--------0----0h-|--3-----3--------3-----3--|
-----------0--------0-----|-----------0-----0----0h-|--2--2-----2--------2-----|
-----2--------------------|-----2-------------------|--------------------------|
--0-----------------------|-------------------------|--------------------------|
--------------------------|--0----------------------|--------------------------|

Divine									We scream into	
                                                      
--------------3-----------|--------------3-----------|
--------1--------1-----1--|--------3--------3-----3--|
-----------0--------0-----|-----0-----0--------0-----|
-----2--------------------|--------------------------|
--0-----------------------|--------------------------|
--------------------------|--3-----------------------|
 The last divide

                            
--------------3-----------||
--------3--------3-----3--||
-----0-----0--------0-----||
--------------------------||
--------------------------||
--3-----------------------||


Chorus

||--0----------------|--3----------------|--3----------------|
||--3----------------|--1----------------|--3----------------|
||--2----------------|--0----------------|--0----------------|
||--0----------------|--2----------------|--0----------------|
||-------------------|--0----------------|--2----------------|
||-------------------|-------------------|--3----------------|

	You			Make me			Real
                                                                                
--0----------------|--3----------------|--3----------------|--0----------------|
--3----------------|--1----------------|--3----------------|--3----------------|
--2----------------|--0----------------|--0----------------|--2----------------|
--0----------------|--2----------------|--0----------------|--0----------------|
-------------------|--0----------------|--2----------------|-------------------|
-------------------|-------------------|--3----------------|-------------------|

	You			Make me		  Real			Strong
                                                                                
--3----------------|--0----------------|--0----------------|--3----------------|
--1----------------|--0----------------|--3----------------|--1----------------|
--0----------------|--0----------------|--2----------------|--0----------------|
--2----------------|--2----------------|--0----------------|--2----------------|
--0----------------|--2----------------|-------------------|--0----------------|
-------------------|--0----------------|-------------------|-------------------|

	As I			Feel			You 				Make me 
                     
--3----------------||
--3----------------||
--0----------------||
--0----------------||
--2----------------||
--3----------------||

Real
Comments