Smashing Pumpkins - Thirty Three Chords & Tabs

 

Thirty Three Chords & Tabs

Smashing Pumpkins Chords & Tabs

Version: 3 Type: Bass Tab 0 ratings
1 star 2 stars 3 stars 4 stars 5 stars
comments

Thirty Three Bass Tab

   
smashing pumpkins
thirty-three
album: melon collie...
submitted by m. burgess


Tune Down 1/2 Step: Eb Ab Db Gb


Note: bass starts at 0:38

Fig1
|------------|
|------------|
|-----3--0---|
|-3----------|

Fig2
|---------------|
|---------------|
|-3-----3--5-3--|
|----3----------|

Fig3
|--------|
|--------|
|-3--5---|
|--------|

Fig4
|-------------------------|
|-------------------------|
|-3-----3--5-3--5-3--5-3--|
|----3--------------------|
[ Tab from: http://www.guitartabs.cc/tabs/s/smashing_pumpkins/thirty_three_btab_ver_3.html ]
Fig5
|------------------------------------------------------------|
|------------------------------------------------------------|
|------------------------------3-3-3-3-3-3-3--0-0-0-0-0-0-0--|
|-3-3-3-3-3-3-3-3-3-3-3-3-3-3--------------------------------|

Fig6
|-------|
|-------|
|-3--0--|
|-------|

Fig7
|-----------------------------------------------------------------------------------------|
|-----------------------------------------------------------------------------------------|
|-----------------------------------------------------------------------------------------|
|-3-3-3-3-3-3-3-3-3-3-3-3-3--3-3-3-3-3-3-3-3-3-3-3-3-3-3--3-3-3-3-3-3-3-3-3-3-3-3-3-3--3--|


Fig1>8x
Fig2>1x
Fig1>4x
Fig3>1x
Fig1>4x
Fig4>1x
Fig5>3x
Fig6>1x
Fig7>1x
Comments