Smashing Pumpkins - The Groover Chords & Tabs

 

The Groover Chords & Tabs

Smashing Pumpkins Chords & Tabs

Version: 1 Type: Bass Tab 0 ratings
1 star 2 stars 3 stars 4 stars 5 stars
comments

The Groover Bass Tab

   
The Smashing Pumpkins
The Groover
Billy's Gravity Demos
Also in Pastichio Medley
Tuning: Eb Ab Db Gb

I'm very lazy, you'll have to put these riffs in order yourself, but they are all there. The guitar riff is the
three-chord variation of these bass notes.

G|-------------------|
D|-------------------|
A|----------5--5p3-3-|
E|-0h3-3-3p0---------|
[ Tab from: http://www.guitartabs.cc/tabs/s/smashing_pumpkins/the_groover_btab.html ]
G|-------------------|
D|-------------------|
A|-------------------|
E|-3--0--3------0--3-|

G|--------------------------------|
D|--------------------------------|
A|-5-5p3-3p2p0-------5-5p3--3p2h3-|
E|-------------3------------------|
        
G|--------------|
D|--------------|
A|------2h3---3-|
E|-3---3--------|

G|-----------------|
D|-----------------|
A|-5-5-5h7-7-7-7p3-|
E|-----------------|

tabbed by The Teran|x
teranix@whatthefuck.com

Comments