Smashing Pumpkins - The Boy Chords & Tabs

 

The Boy Chords & Tabs

Smashing Pumpkins Chords & Tabs

Version: 2 Type: Bass Tab 0 ratings
1 star 2 stars 3 stars 4 stars 5 stars
comments

The Boy Bass Tab

   
Title: The Boy
Artist: The Smashing Pumpkins
Tuning:  Eb Ab Db Gb

First it's just the drums then the guitar, then
bass, guitar and james.
Riff 1
G|------------------------------4----4------------------|
D|-----------------5------5--2-----2---2------5------5--|   
A|------------3--3----3-3----------------3--3----3-3----|  
E|3--3--3-3-3-------------------------------------------|

Play Riff 1 Twice

Riff 2
G|--------------------------------------------------|
D|--------------------------2--2--2-2-2-------------|   
A|0--0--0-0-0-2--2--2--2--------------3--3-3--3--3--|  
E|--------------------------------------------------|

Play Riff 2 Twice
[ Tab from: http://www.guitartabs.cc/tabs/s/smashing_pumpkins/the_boy_btab_ver_2.html ]
Riff 3
G|-------------------------------------------------|
D|----------------2-2-2-2-2-2-2-2------------------|
A|5-5-5-5-5-5-5-5-----------------3-3-3-3-3-3-3-3--|
E|-------------------------------------------------|

Riff 3 contiuned
G|-------------------------------------------------|
D|-------------------------------------------------|
A|----------------3-3-3-3-3-3-3-3------------------|
E|5-5-5-5-5-5-5-5-----------------3-3-3-3-3-3-3-3--|

Play Riff 1 Two more times, then Riff 2 twice.

Riff 4
G|-------------------------------------------------------------|
D|-------------------------------------------------------------|
A|--------------3-3-3---------2-2-2-2-3-3-3-3-5-5-5-5-5-5-5-5--|
E|0-0-0-0-0-0-0-------3-3-3-3----------------------------------|

Riff 4 continued
G|----------------------------|
D|----------------------------|   
A|--------------3-3-3---------|   
E|0-0-0-0-0-0-0-------3-3-3-3-|

Then go back and play Riff 1 over and over again.

No Idea Who tabbed this...but its a Damn good job


Comments