Smashing Pumpkins - Sun Chords & Tabs

 

Sun Chords & Tabs

Smashing Pumpkins Chords & Tabs

Version: 1 Type: Bass Tab 0 ratings
1 star 2 stars 3 stars 4 stars 5 stars
comments

Sun Bass Tab

   
SONG: Sun
ARTIST: The Smashing Pumpkins
ALBUM: Light Into Dark (compilation)
AUTHOR: Billy Corgan
PUBLISHER: (c) 1989 Chrysalis Songs/Cinderful Music (BMI)
TUNING: D A D G


Sun is, without a doubt, one of the best Pumpkin songs from the
pre-Gish era.  It's unfortunate that this song never appeared on 
an album.  As you might know, it was originally released on a 
rare, limited edition compilation of local Chicago acts in 1989.  
An alternate mix of Sun can also be found on the Pumpkin's first 
demo tape, The Smashing Pumpkins.  That second mix fades in 
without the opening riff and has a longer, phased outro.

The bass is extremely hard to make out, even on both versions.  
This is my interpretation, as it may be slightly inaccurate.
Sun should be played in drop D tuning.  

[ Tab from: http://www.guitartabs.cc/tabs/s/smashing_pumpkins/sun_btab.html ]
Verse:
G|-----------------------------------|-------
D|--0---7-8-7---0-7-8---------8---7--|-------
A|-----------------------------------|--5----
D|--------------------8-----8---7----|-------


Chorus:
G|-----------------------------------|
D|----------------------5-------3----|
A|------------5---5---5---5---3---3--|
D|--0-0-0-0-0---0---5-------3--------|


Interlude:
G|------------------------------------------------|
D|------------------------------------------------|
A|--5----------5----------5----------5------------|
D|------------------------------------------------|

  ------------------------------------------------------|-------
  ------------------------------------------------------|-------
  --5------5\--1------1/--5------5\--1---1---0-1-0-1-3--|--5----
  ------------------------------------------------------|-------


     Transcribed by: Jesse Miller  
     This is my own work.  Rip me off and you will die.

Comments