Smashing Pumpkins - Smiley Chords & Tabs

 

Smiley Chords & Tabs

Smashing Pumpkins Chords & Tabs

Version: 3 Type: Tab 0 ratings
1 star 2 stars 3 stars 4 stars 5 stars
comments

Smiley Tab

   
 The Smashing Punpkins
 Smiley 
 tunkins:E A D G B E
 (his is for lead only)
|--------------------------------------|
|---8-8-5\3-3/10-------8-8-5\3-3/10----|
|-0-----------------0------------------|
|--------------------------------------|
|--------------------------------------|
|--------------------------------------|

|-------------------------|--------------------------|
|---8-----8-----8-----8---|----8-----8-----8-----8---|
|-7---7-5---5-7---7-5---5-|--7---7-5---5-7---7-5---5-|
|-------------------------|--------------------------|
|-------------------------|--------------------------|
|-------------------------|--------------------------|

you gunna gream your life away
|------------------------------|
|------------------------------|
|---------------------16-------|
|------------------------------|
|------------------------------|
|------------------------------|

|-------------------------------------------|
|-------------------------------------------|
|---7-5-----4---4--------7-5-----4---4------|
|-5-----5-5---5---0----5-----5-5---5---0----|
|-------------------------------------------|
|-------------------------------------------|

|------------------------------------------------------------|
|---8-----8-----8--------8-----8-----8-----8-----8-----8-----|
|-5---5-7---7-5---5----7---7-5---5-7---7-5---5-7---7-5---5---|
|------------------------------------------------------------|
|------------------------------------------------------------|
|------------------------------------------------------------|

and hell wait on his knees
|------------------------------------3---0------|
|----------------------------8-8-5\3---3---3----|
|-----------------------------------------------|
|-----------------------------------------------|
|-----------------------------------------------|
|-----------------------------------------------|
[ Tab from: http://www.guitartabs.cc/tabs/s/smashing_pumpkins/smiley_tab_ver_3.html ]
smiley
|--------------------|------------------------------|
|--------8-----8-----|-----8-----8-----8-----8------|
|------7---7-5---5---|---7---7-5---5-7---7-5---5----|
|--------------------|------------------------------|
|--------------------|------------------------------|
|--------------------|------------------------------|

is such a sin to say your ganna deam your life ayay
|---------------------------------------------------|
|---------------------------------------------------|
|------------------------------------------16-------|
|---------------------------------------------------|
|---------------------------------------------------|
|---------------------------------------------------|

your love wont chang 
|-----------------------------|
|----------------------15-15--|
|-----16----------------------|
|-----------------------------|
|-----------------------------|
|-----------------------------|
                                          smiley smiley smiley smiley
|----15--------15--------15--------15-----------------------------------|
|-15----15--13----13--15----15--13----13------17-------------------17---|
|-------------------------------------------15---------------------15---|
|-----------------------------------------14-----------------------14---|
|-----------------------------------------------------------------------|
|-----------------------------------------------------------------------|
                                          smiley smiley smiley smiley
|----15--------15--------15--------15-----------------------------------|
|-15----15--13----13--15----15--13----13--17-----------------17---------|
|-----------------------------------------15--------------------15------|
|-----------------------------------------14-----------------------14---|
|-----------------------------------------------------------------------|
|-----------------------------------------------------------------------|

|--------------------------------------------------------------------|
|--------------------------------------------------------------------|
|---14-19-------19---14-------19---14-------19---14-------19---14----|
|-14-----14---19---14--14---19---14--14---19---14--14---19---14--14--|
|--------------------------------------------------------------------|
|--------------------------------------------------------------------|

|----------------------------------|
|----------------------------------|
|---19---14------19---14-------19--|
|-19---14--14--19---14--14---19----|
|----------------------------------|
|----------------------------------|
Comments