Smashing Pumpkins - Smiley Chords & Tabs

 

Smiley Chords & Tabs

Smashing Pumpkins Chords & Tabs

Version: 2 Type: Tab 0 ratings
1 star 2 stars 3 stars 4 stars 5 stars
comments

Smiley Tab

#----------------------------------PLEASE NOTE---------------------------------#
#This file is the author's own work and represents their interpretation of the #
#song. You may only use this file for private study, scholarship, or research. #
#------------------------------------------------------------------------------##
From Brian McCall 

Smiley - by Smashing Pumpkins from the Peel Sessions album/EP
------
This is pretty close, but not exact.  Any comments are welcome.

Riff1

G1 and G2 clean tone
[ Tab from: http://www.guitartabs.cc/tabs/s/smashing_pumpkins/smiley_tab_ver_2.html ]
|----3--3-3-----1----------3--3-3-------1-|
|----3--3-3-----1--X-X-----3--3-3---X-X-1-|
|----0--0-0--2--2--X-X-----0--0-0---X-X-2-|
|----0--0-0--3--3--X-X-----0--0-0---X-X-3-|
|-X--X----X--3--3--X-X--X--X----X---X-X-3-|
|-3--3-------1--1-------3--3--------X-X-1-|

Lead 1 (G2)

|----------------------------|
|---8----8----5\3----(3)/10--|
|-0----0----0-----0----------|
|----------------------------|
|----------------------------|
|----------------------------|

Riff 2

  Smiley...                    where....    been?

|----3--3-3-----1---------3--3-3-----1------0-----|
|----3--3-3-----1--X-X----3--3-3-----1--X-X-0-----|
|----0--0-0--2--2--X-X----0--0-0-----2--X-X-1-----|
|----0--0-0--3--3--X-X----0--0-0--3--3--X-X-2-----|
|-X--X-------3--3--X-X--X-X-------3--3--X-X-2-----|
|-3--3-------1--1-------3-3-------1--1------0-----|

and so on....It's all basically G, F, and E in different rhythms.
Pretty easy song...I broke my high E so I haven't figured out the
end.
Comments