Smashing Pumpkins - Rhinoceros Chords & Tabs

 

Rhinoceros Chords & Tabs

Smashing Pumpkins Chords & Tabs

Version: 2 Type: Bass Tab 0 ratings
1 star 2 stars 3 stars 4 stars 5 stars
comments

Rhinoceros Bass Tab

Rhinoceros
by Randy Locklair
rlocklair@envirolink.org

Intro
G-------
D-------
A-----7-
E-0-0---

Verse
G--------------------------------------------------------------
D--------------------------------------------------------------
A-----7-----7-----7-------5---5---5---5------------------------
E-0-0---0-0---0-0---4-2-0---2---2---2---2----------------------

Chorus
G-------------
D-------------
A-3-3-----5-5-
E-----3-3-----

Chorus 2
G-------------------7---7----
D-----2-3--------------------
A-3-5---------2-3-5---5---5--
E---------3-5----------------
[ Tab from: http://www.guitartabs.cc/tabs/s/smashing_pumpkins/rhinoceros_btab_ver_2.html ]
Solo
G---------------------------
D---------------------------
A-------------3-3-3-5-5-5---
E-5-3-5-3-5-3-------------3-

Filler
G-------------------------------------------
D-------------------------------------------
A-----7-----7-----7-------5-5-5-5-5-5-5-5-5-
E-0-0---0-0---0-0---4-2-0-------------------

Intro x 16
Verse x 2
Intro x 8
Verse x 2
Chorus x 4.5
Intro x 16
Verse x 2
Chorus 2 x 4.5
Solo x 4
Filler x 4
Chorus 2 x 8

________________________________________________________________________
___

Any problems, suggestions, compliments, requests for other songs, etc,
email to:

rlocklair@envirolink.org

Return to the Pumpkin Pie Guitar Section!
Return to the Pumpkin Pie!

-randy




Comments