Smashing Pumpkins - Plume Chords & Tabs

 

Plume Chords & Tabs

Smashing Pumpkins Chords & Tabs

Version: 3 Type: Tab 0 ratings
1 star 2 stars 3 stars 4 stars 5 stars
comments

Plume Tab

   
Tuning: E A D G B E


VERSE
                x7
|-----------------|
|-----------------|
|-------------5-5-|
|-5-5-5-5-5-5-5-5-|
|-5-5-5-5-5-5-3-3-|
|-3-3-3-3-3-3-3-3-|

|-----------------|
|-----------------|
|-------------5-5-|
|-2-2-2-2-3-3-5-5-|
|-2-2-2-2-3-3-3-3-|
|-0-0-0-0-1-1-3-3-|

                x3
|-----------------|
|-----------------|
|-------------5-5-|
|-5-5-5-5-5-5-5-5-|
|-5-5-5-5-5-5-3-3-|
|-3-3-3-3-3-3-3-3-|

|-------------------------|
|-------------------------|
|-------------------------|
|-2-2-2-2-3-3-3-3-3-3-3-3-|
|-2-2-2-2-3-3-3-3-3-3-3-3-|
|-0-0-0-0-1-1-1-1-1-1-1-1-|


CHORUS
                                x3
|---------------------------------|-----------------|
|---------------------------------|-----------------|
|-----------------5-5-5-5-5-5-5-5-|---------5-5-5-5-|
|-5-5-5-5-2-2-2-2-5-5-5-5-5-5-5-5-|-7-7-7-7-5-5-5-5-|
|-5-5-5-5-2-2-2-2-3-3-3-3-3-3-3-3-|-7-7-7-7-3-3-3-3-|
|-3-3-3-3-0-0-0-0-3-3-3-3-3-3-3-3-|-5-5-5-5-3-3-3-3-|


SOLO

 Rhythm                           x2
|-----------------------------------|
|-----------------------------------|
|-7/9-7/9--7/9-7/9--5-5-5-5-5-5-5-5-|
|-7/9-7/9--7/9-7/9--5-5-5-5-5-5-5-5-|
|-5/7-5/7--5/7-5/7--3-3-3-3-3-3-3-3-|
|-5/7-5/7--5/7-5/7--3-3-3-3-3-3-3-3-|

                                x3
|---------------------------------|-----------------|
|---------------------------------|-----------------|
|-----------------5-5-5-5-5-5-5-5-|---------5-5-5-5-|
|-5-5-5-5-2-2-2-2-5-5-5-5-5-5-5-5-|-7-7-7-7-5-5-5-5-|
|-5-5-5-5-2-2-2-2-3-3-3-3-3-3-3-3-|-7-7-7-7-3-3-3-3-|
|-3-3-3-3-0-0-0-0-3-3-3-3-3-3-3-3-|-5-5-5-5-3-3-3-3-|

                x4
|-----------------|
|-----------------|
|-------------5-5-|
|-5-5-5-5-5-5-5-5-|
|-5-5-5-5-5-5-3-3-|
|-3-3-3-3-3-3-3-3-|


 Lead
|---------------------------------------------------------------------
|-----------------------------------15gb17~~~~--19r17b19-17-15--------
|-14-16~~-14-16~~--14-16~~-14-16-14----------------------------16~~~~-
|---------------------------------------------------------------------
|---------------------------------------------------------------------
|---------------------------------------------------------------------

 -------------------17b19r17p15-----15--------------------------------
 -------17gb19~~~~--------------17-----17~~--15b17--------------------
 -16r14--------------------------------------------14b16~~-----12-14--
 -----------------------------------------------------------14--------
 ---------------------------------------------------------------------
 ---------------------------------------------------------------------

 ----12------------------------------------------15b17-15b17r15-15~~~-
 -13----15gb17~~-------13p12h13p12------------------------------------
 ----------------14b16-------------14p12------------------------------
 ----------------------------------------12~~~~-----------------------
 ---------------------------------------------------------------------
 ---------------------------------------------------------------------

 -14b15r14b15r14b15r14~~~~--(14)b15r14~~14b15r14~~--12-12-------------
 ---------------------------------------------------------15-13~~~~---
 ---------------------------------------------------------------------
 ---------------------------------------------------------------------
 ---------------------------------------------------------------------
 ---------------------------------------------------------------------

 -----------------------------------------(14)/15-15-15-15-15~~~~\\\--
 ---------------------------------------------------------------------
 ---------17b19b19b19b19b19b19b19r17~~~~------------------------------
 ---------------------------------------------------------------------
 ---------------------------------------------------------------------
 -15~~~~--------------------------------------------------------------
[ Tab from: http://www.guitartabs.cc/tabs/s/smashing_pumpkins/plume_tab_ver_3.html ]
 -------17-19-20-------------------------------|
 -19-20----------20~~~--------15-15-15-15~~~~--|
 ----------------------------------------------|
 ---------------(17)~~--17-17------------------|
 ----------------------------------------------|
 ----------------------------------------------|


VERSE 2
                x3
|-----------------|
|-----------------|
|-------------5-5-|
|-5-5-5-5-5-5-5-5-|
|-5-5-5-5-5-5-3-3-|
|-3-3-3-3-3-3-3-3-|

|-----------------|
|-----------------|
|-------------5-5-|
|-2-2-2-2-3-3-5-5-|
|-2-2-2-2-3-3-3-3-|
|-0-0-0-0-1-1-3-3-|

                x3
|-----------------|
|-----------------|
|-------------5-5-|
|-5-5-5-5-5-5-5-5-|
|-5-5-5-5-5-5-3-3-|
|-3-3-3-3-3-3-3-3-|

|-------------------------|
|-------------------------|
|-------------------------|
|-2-2-2-2-3-3-3-3-3-3-3-3-|
|-2-2-2-2-3-3-3-3-3-3-3-3-|
|-0-0-0-0-1-1-1-1-1-1-1-1-|


CHORUS 2
                                x3
|---------------------------------|-----------------|
|---------------------------------|-----------------|
|-----------------5-5-5-5-5-5-5-5-|---------5-5-5-5-|
|-5-5-5-5-2-2-2-2-5-5-5-5-5-5-5-5-|-7-7-7-7-5-5-5-5-|
|-5-5-5-5-2-2-2-2-3-3-3-3-3-3-3-3-|-7-7-7-7-3-3-3-3-|
|-3-3-3-3-0-0-0-0-3-3-3-3-3-3-3-3-|-5-5-5-5-3-3-3-3-|


OUTRO

 Rhythm                           x2
|-----------------------------------|
|-----------------------------------|
|-7/9-7/9--7/9-7/9--5-5-5-5-5-5-5-5-|
|-7/9-7/9--7/9-7/9--5-5-5-5-5-5-5-5-|
|-5/7-5/7--5/7-5/7--3-3-3-3-3-3-3-3-|
|-5/7-5/7--5/7-5/7--3-3-3-3-3-3-3-3-|

                                x3
|---------------------------------|-----------------|
|---------------------------------|-----------------|
|-----------------5-5-5-5-5-5-5-5-|---------5-5-5-5-|
|-5-5-5-5-2-2-2-2-5-5-5-5-5-5-5-5-|-7-7-7-7-5-5-5-5-|
|-5-5-5-5-2-2-2-2-3-3-3-3-3-3-3-3-|-7-7-7-7-3-3-3-3-|
|-3-3-3-3-0-0-0-0-3-3-3-3-3-3-3-3-|-5-5-5-5-3-3-3-3-|


|--------------------------------------14b15r14/17\--19b22~~r19-19-19-
|-15b17~~r15p12h15p12~~-----------------------------------------------
|-----------------------14b16r14p12~~---------------------------------
|---------------------------------------------------------------------
|---------------------------------------------------------------------
|---------------------------------------------------------------------

 -15b17b17b17b17b17b17b17r15~~-17r15~~--15-14-12-------12-------------
 ------------------------------------------------15b17----15b17-15p13-
 ---------------------------------------------------------------------
 ---------------------------------------------------------------------
 ---------------------------------------------------------------------
 ---------------------------------------------------------------------

 -15b17~~~~-----------------------------------------------------------
 -----------15p13~~---------------------------------------------------
 -------------------12~~-------16r14-12h14p12----12-12b14r12p11h12p11-
 ------------------------12~~-----------------12----------------------
 ---------------------------------------------------------------------
 ---------------------------------------------------------------------

 ---------------------------------------------------------------------
 ------------------------------------------15-12----------------------
 ----11-12/14-14b16b16b16b16b16b16r14~~~~--------14b16r14p12\11-------
 -12------------------------------------------------------------14p12-
 ---------------------------------------------------------------------
 ---------------------------------------------------------------------

 ------------------------------------------------------------|
 ------------------------------------------------------------|
 ------------------------------------------------10gb12~~~~--|
 --------------------------------7--12r10-9h10p9-------------|
 -12~~--10-12-12b14-12-10~~-9h10-----------------------------|
 ------------------------------------------------------------|
Comments