Smashing Pumpkins - Pennies Chords & Tabs

 

Pennies Chords & Tabs

Smashing Pumpkins Chords & Tabs

Version: 2 Type: Bass Tab 0 ratings
1 star 2 stars 3 stars 4 stars 5 stars
comments

Pennies Bass Tab

   
Song: Pennies
Artist: Smashing Pumpkins
Album: Zero Single
Tunning: E A D G

Come in after guitar intro with

Riff 1
G|-----------------------------|
D|-----------------------------|
A|--------------------5-5-5----|
E|5-5-5-5-5-5-5-7-7-7-------0--|

During "I always Loved you so" Play:

Riff 2
G|---------------------------|
D|---------------------------|
A|5-5-5-2-2-2-3-3-3-3-3-3-3--|
E|---------------------------|

Then go back to Riff 1
After Riff 1 is played add this fill after billy says
"All the World Must Know" for the second time
[ Tab from: http://www.guitartabs.cc/tabs/s/smashing_pumpkins/pennies_btab_ver_2.html ]
Riff 3
G|-------------------|
D|-------------------|
A|----------------5--|
E|2-2-2-0-0-2-2-7----|

Then go Back up to Riff 1
After billy says "but i've got a new girlfriend she 
looks alot like you did" Play Riff 2 and again at "All the World must Know" Play Riff 3

then they alter Riff 1 , its the Same notes just 
Different Rhythm it goes like this:

Riff 4
G|---------------------|
D|---------------------|
A|----5-5-5-5-5-5-5-5--|
E|5-7------------------|

After this Riff play a Riff 3 then go Back to Riff 1 and end the song on A(5th Fret on E string)

Tab made by Nathan Amber. Send Questions/Comments to:
iha_eeha@hotmail.com



Comments