Smashing Pumpkins - Love Chords & Tabs

 

Love Chords & Tabs

Smashing Pumpkins Chords & Tabs

Version: 1 Type: Tab 0 ratings
1 star 2 stars 3 stars 4 stars 5 stars
comments

Love Tab

   
Smashing Pumpkins - Love
Submitted By: Parker
EMail: coma210@hotmail.com


Tune down half a step (like most of the album)
Eb Ab Db Gb Bb Eb


Intro:
G# (many times)

Verse Riff:
G# B E

Bridge: ("it=92s what you wanted to see" bit)
E F#

Chorus and Solo Backing:
G# B C# E
G# B C# E
G# C# E F#
G# B C# E
[ Tab from: http://www.guitartabs.cc/tabs/s/smashing_pumpkins/love_tab.html ]
Solo:
|-5-5-5-5-10\-10\-10\-10\-10\-8---8-10\-14\-16\-17\-|  \ is a bend
|-------------------------------9-------------------|
|---------------------------------------------------|
|---------------------------------------------------|
|---------------------------------------------------|
|---------------------------------------------------|

|-17-15-------15----19-15----20\-17-|
|-------17-15----17-------17--------|
|-----------------------------------|
|-----------------------------------|
|-----------------------------------|
|-----------------------------------|

|-17-15------------------------------|
|-------17-15-12-15-15-17-15-20-full-|
|-------------------------------bend-|
|------------------------------------|
|------------------------------------|
|------------------------------------|

End: ("love solves everything" bit)
G#    B E G#
(many)    (all those fuzzy chords at the end are G#)
Comments