Smashing Pumpkins - Jealousy Chords & Tabs

 

Jealousy Chords & Tabs

Smashing Pumpkins Chords & Tabs

Version: 1 Type: Chords 0 ratings
1 star 2 stars 3 stars 4 stars 5 stars
comments

Jealousy Chords

   
Tuning: E A D G B E


INTRO
D G D G D G A A

Lead...
|-----------------|
|-----------------|
|-----------------|
|-4--5-5--4-5--4--|
|-5--5-5--5-5--5--|
|-----------------|


VERSE
D G D G D G A A
D G D G D G A A


BRIDGE
G G A A D D G G


CHORUS
D G D G D G D G


PRE-VERSE
D G D G D G D G


VERSE 2
D G D G D G A A
D G D G D G D D


ANOTHER BRIDGE
D Bm A G
D Bm A

[ Tab from: http://www.guitartabs.cc/tabs/s/smashing_pumpkins/jealousy_crd.html ]
BRIDGE 2
G G A A D D G G


CHORUS 2
D G D G D G D G


SOMETHING ELSE
D G D G D G D D


ANOTHER BRIDGE 2
D Bm A G
D Bm A


BRIDGE 3 - Em Em D/F# D/F# G G Gm Gm


CHORUS 3
D G D G D G D G
D G D G D G D G
D G D G D G D G


OUTRO
D G D G D G D D

End on D


Chords:
  A  Bm D D/F# Em G  Gm
|-0--2--2--2---0--3--3--|
|-2--3--3--3---0--3--3--|
|-2--4--2--2---0--0--3--|
|-2--4--0--0---2--0--5--|
|-0--2-----X---2--2--5--|
|----------2---0--3--3--|
Comments