Smashing Pumpkins - Hello Kitty Kat Chords & Tabs

 

Hello Kitty Kat Chords & Tabs

Smashing Pumpkins Chords & Tabs

Version: 2 Type: Bass Tab 0 ratings
1 star 2 stars 3 stars 4 stars 5 stars
comments

Hello Kitty Kat Bass Tab

   
Title: Hello Kitty Kat
Artist: The Smashing Pumpkins
Tuning: E A D G

Riff1
G|-----------------------------|
D|-----------------------------|
A|-----------------------------|
E|2--2-2-0h2--2--2-2-2-0h2-2-2-|

At the chorus:

Riff2
G|--------------------|
D|--------------------|
A|--------------------|
E|4--4h4--0-0-0-0-0-0-|

Play Riff1 again sometimes playing:

Riff3
G|---------------|
D|---------------|
A|2-2-2----------|
E|------0--0-0-0-|

Play Riff2 then:
[ Tab from: http://www.guitartabs.cc/tabs/s/smashing_pumpkins/hello_kitty_kat_btab_ver_2.html ]
Riff4
G|-------------------------------|
D|-------------------------------|
A|4--4h4----------4-4h4--------2-|
E|-------0--0-0-0-------0--0-5h--|

Last time:

G|------------------------|
D|------------------------|
A|4--4h4----------4-4h4-5-|
E|-------0--0-0-0---------|


During the solo:

Riff5
G|----------|
D|----------|
A|2-------4-|
E|--4-0h2---|

Then right before Billy comes in play:

G|-------------|
D|-------------|
A|4--6--7--9---|
E|-------------|

Play Riff2, Riff1 to the end. 







Comments