Smashing Pumpkins - Go Chords & Tabs

 

Go Chords & Tabs

Smashing Pumpkins Chords & Tabs

Version: 1 Type: Tab 0 ratings
1 star 2 stars 3 stars 4 stars 5 stars
comments

Go Tab

   
Tuning: Eb Ab Db Gb Bb Eb


INTRO
|-0--------|
|-3--------|
|-2--------|
|-0--------|
|----------|
|----------|


VERSE
                                    x2
|-0--------0--------0--------0--------|
|-3--------3--------3--------3--------|
|-2--------2--------0--------2--------|
|-0--------X--------2--------0--------|
|----------4--------2-----------------|
|-------------------0-----------------|


PRECHORUS
                   x2
|-2----2----3--------|
|-3----2----3--------|
|-4----2----0--------|
|-4----4----0--------|
|-2----4----2--------|
|------2----3--------|


BRIDGE
|-0----0----0----|
|-3----3----3----|
|-2----2----0----|
|-0----X----2----|
|------4----2----|
|-----------0----|


CHORUS
               x2
|-0----0----0----|
|-3----3----3----|
|-2----2----0----|
|-0----X----2----|
|------4----2----|
|-----------0----|
[ Tab from: http://www.guitartabs.cc/tabs/s/smashing_pumpkins/go_tab.html ]
|-0----2----3----|
|-3----2----3----|
|-2----2----0----|
|-0----4----0----|
|------4----2----|
|------2----3----|

Then chug away on this for a bit
|-0--------|
|-3--------|
|-2--------|
|-0--------|
|----------|
|----------|


VERSE 2 - Same


PRECHORUS 2
|-2----2----3--------|
|-3----2----3--------|
|-4----2----0--------|
|-4----4----0--------|
|-2----4----2--------|
|------2----3--------|

|-2----0----0--------3--------|
|-3----3----3--------3--------|
|-4----2----0--------0--------|
|-4----X----2--------0--------|
|-2----4----2--------2--------|
|-----------0--------3--------|


CHORUS 2
               x2
|-0----0----0----|
|-3----3----3----|
|-2----2----0----|
|-0----X----2----|
|------4----2----|
|-----------0----|

               x2
|-0----2----3----|
|-3----2----3----|
|-2----2----0----|
|-0----4----0----|
|------4----2----|
|------2----3----|

End on
|-0--------|
|-3--------|
|-2--------|
|-0--------|
|----------|
|----------|
Comments