Smashing Pumpkins - Geek Usa Chords & Tabs

 

Geek Usa Chords & Tabs

Smashing Pumpkins Chords & Tabs

Version: 2 Type: Tab 0 ratings
1 star 2 stars 3 stars 4 stars 5 stars
comments

Geek Usa Tab

   
Tuning: One-half step down (Eb Ab Db Gb Bb Eb)

Intro
-----------------------------------------|
-----------------------------------------|
-7/9-9-9-9-9-9-9-9-9-7/9-9-9-9-9-9-9-9-9-|
-7/9-9-9-9-9-9-9-9-9-7/9-9-9-9-9-9-9-9-9-|
-5/7-7-7-7-7-7-7-7-7-5/7-7-7-7-7-7-7-7-7-|
-0-0-0-0-0-0-0-0-0-0-0-0-0-0-0-0-0-0-0-0-|

Intro Part2
--------------------------------------|
--------------------------------------|
-7/9-9-9-9-9-9-9-12-7/9-9-9-9-9-9-9-7-|
-7/9-9-9-9-9-9-9-12-7/9-9-9-9-9-9-9-7-|
-5/7-7-7-7-7-7-7-10-5/7-7-7-7-7-7-7-5-|
-0-0-0-0-0-0-0-0-0--0-0-0-0-0-0-0-0-0-|

Intro Part2 (Gtr. 2)
---------------------------|
---------------------------|
-/16v---/12v---14pbr-------|
-----------------------12b-|
---------------------------|
---------------------------|

Verses
-----------------------    -------------------|
-----------------------    -------------------|
-------7---------------    -------7-----------|
-2-2-2-7-2-2-2-2-7/9\5- x3 -2-2-2-7---7-6---5-|
-2-2-2-5-2-2-2-2-7/9\5-    -2-2-2-5---7-6---5-|
-0-0-0---0-0-0-0-5/7\3-    -0-0-0---0-5-4-0-3-|

Chorus
-------------------------------------------------------------------------|
-------------------------------------------------------------------------|
---------7-----------9-------------------------------------------9-9-9-9-|
-2-2-2-2-7-2-2-2-2-2-9-2-2-5-5-5-5-5-5-7-7-7-7-7-7---------------9-9-9-9-|
-2-2-2-2-5-2-2-2-2-2-7-2-2-5-5-5-5-5-5-7-7-7-7-7-7-7-5-----------7-7-7-7-|
-0-0-0-0---0-0-0-0-0---0-0-3-3-3-3-3-3-5-5-5-5-5-5-----7-6-5-3-0---------|

Chorus Continued
-----------------------------------------------------------------------|
-----------------------------------------------------------------------|
---------------------------------7-----------9-------------------------|
-5-5-5-5-5-5-7-7-7-7-7-7-2-2-2-2-7-2-2-2-2-2-9-5-5-5-5-5-5-7-7-7-7-7-7-|
-5-5-5-5-5-5-7-7-7-7-7-7-2-2-2-2-5-2-2-2-2-2-7-5-5-5-5-5-5-7-7-7-7-7-7-|
-3-3-3-3-3-3-5-5-5-5-5-5-0-0-0-0---0-0-0-0-0---3-3-3-3-3-3-5-5-5-5-5-5-|

Chorus Continued
----------------------------------------------------------------------------|
----------------------------------------------------------------------------|
----------------------9-9-9-9-9-9-9-9-9-9-9-9-9-9-9-9---------------------9-|
-5-5-5-5-5-5-7-7-7-7/-9-9-9-9-9-9-9-9-9-9-9-9-9-9-9-9-5-5-5-5-5-5-7-7-7-7-9-|
-5-5-5-5-5-5-7-7-7-7/-7-7-7-7-7-7-7-7-7-7-7-7-7-7-7-7-5-5-5-5-5-5-7-7-7-7-7-|
-3-3-3-3-3-3-5-5-5-5/-0-0-0-0-0-0-0-0-0-0-0-0-0-0-0-0-3-3-3-3-3-3-5-5-5-5-0-|

2nd Intro Part 2
----------17b---12--------------------------|
-17-15v------------15-12----------------15b-|
-------------------------14-12----12-14-----|
-------------------------------14-----------|
--------------------------------------------|
--------------------------------------------|

Interlude (If by chance...)
-------------------------------------------------    --------|
-------------------------------------------------    --------|
-------------------------9-9-----9-9-----9-9-9-9-    --------|
-7-7-7-7-7-7-9-9-9-9-9-9-9-9-----9-9-----9-9-9-9- x3 -7-9-12-|
-7-7-7-7-7-7-9-9-9-9-9-9-7-7-----7-7-----7-7-7-7-    -7-9-12-|
-5-5-5-5-5-5-7-7-7-7-7-7-----0-0-----0-0---------    -5-7-10-|
                             4th time change (same rhythym)^

Interlude Part 2
-----------------------------------------------------------------------|
-8/17-8/17-8/17-8/17-8/17-8/17-8/17--17-16-15-14-13-12-10-10\9-9-9-9-9-|
-x-x--x-x--x-x--x-x--x-x--x-x--x-x---x--x--x--x--x--x--x--x--x-x-x-x-x-|
-5/14-5/14-5/14-5/14-5/14-5/14-5/14--14-13-12-11-10-9--7--7\\6-6-6-6-6-|
-----------------------------------------------------------------------|
-----------------------------------------------------------------------|
[ Tab from: http://www.guitartabs.cc/tabs/s/smashing_pumpkins/geek_usa_tab_ver_2.html ]
Interlude Part 2 Continued
---------------------------------------|
-10-9-10-12-15-15-15-15-15-15-15b------|
-x--x-x--x--x--x--x--x--x--x--x--------|
-7--6-7--9--12-12-12-12-12-12-12b------|
---------------------------------------|
-----------------------------------12\-|

2nd Chorus Pick Part Replacement (Gtr.1 Bottom, Gtr.2 Top)
-            ---------------      -12------------------------|
-            ---------------      ----15-12--------------/15-|
-            ---------------      -9--7-----15-14-12-----/7--|
- Instead Of --------------- Play -------9--8--7--5--14------|
-            -7-5-----------      -------------------7-------|
-            -----7-6-5-3-0-      ---------------------------|

2nd Chorus Part 2
---------------12-----------15-12----12-15-12----12-15-12----12-17b---------|
-14br(14)v-15b-12-15v-------------15----------15----------15--------15v-17v-|
-14--(14)v-14b----14v-12-14-----------------------------------------x---x---|
--------------------------------------------------------------------12v-14v-|
----------------------------------------------------------------------------|
----------------------------------------------------------------------------|

Bridge (In a dream we are connected...)
----------|
----------|
-1----4br-|
---1b-----|
----------|
----------|

Bridge Part 2 (knew we'd been forsaken...)
---------------------------|
---------------------------|
---------------------------|
-2-2-2-2-2-2-4-4-4-4-7-7-7-|
-2-2-2-2-2-2-4-4-4-4-7-7-7-|
-0-0-0-0-0-0-2-2-2-2-5-5-5-|

Bridge Part 3 (knew we'd been forsaken...) (Gtr. 2)
---------------------------------     -----------------     -------------|
----------------------------5/7v-     -7\5-5/7-7/10-10-     -------5/7v--|
-13-8-9-9/11-9-9-9-9--------4/6v-     -6\4-4/6-6/9--9--     -------4/6v--|
--x-x-x-x--x-x-x-x-x----9\7------Fig 1-4\2-2/4-4/7--7--Fig 1---9\7-------|Fig1
-11-6-7-7/9--7-7-7-7----9\7------     -----------------     ---9\7-------|
----------------------0-7\5------     -----------------     -0-7\5-------|
 ^------Fig 1------------------------------------------------------------|

Solo 1
-----12h15p12-----12h15p12-----12h15p12-12h15p12-12h14p12-----------------|
-15b----------15b----------15b----------------------------14br-14brp12----|
-----------------------------------------------------------------------14-|
--------------------------------------------------------------------------|
--------------------------------------------------------------------------|
--------------------------------------------------------------------------|

Solo 1 Continued
---------------------------------------------------------------------------|
------------------------------------------------------17b------------------|
-14p12--------------------------------------14-14/16v---------12v-14v-14br-|
-------14-12-----------------------12-14p12---------------14v--------------|
-------------14\12-10-12v-10-12/14-----------------------------------------|
---------------------------------------------------------------------------|

Solo 1 Continued
----------------------------------------------------------------------------|
----------------------------------------------------------------------------|
-14-12-14-16-14-12-14-16-14-12-14-16-14-12-14-16-14-12-14-15-12-14-15-14-12-|
----------------------------------------------------------------------------|
----------------------------------------------------------------------------|
----------------------------------------------------------------------------|

Solo 1 Continued
-----------------------------------------------------------------------------|
-------------------------15-16-14-15-17-15b-15br-17br-19br-20br-21br-22br----|
-14-15-16-15-14-16-14-13--------------------------------------------------21-|
-----------------------------------------------------------------------------|
-----------------------------------------------------------------------------|
-----------------------------------------------------------------------------|

More will be coming as I update this. It is a complicated tab.
By Thursday it will have all parts. Please be patient.
Comments