Smashing Pumpkins - Galapogos Chords & Tabs

 

Galapogos Chords & Tabs

Smashing Pumpkins Chords & Tabs

Version: 3 Type: Tab 0 ratings
1 star 2 stars 3 stars 4 stars 5 stars
comments

Galapogos Tab

   
Smashing Pumpkins - Galapogos

p=pull off
/=slide

Intro:
e---0------0------9------9----|---0------0------9------9----|
b----10-----10-----10-----10--|----10-----10-----10-----10--|
g------11-----11-----11-----11|------11-----11-----11-----11|
d-0------0------0------0------|-0------0------0------0------|
a-----------------------------|-----------------------------|
E-----------------------------|-----------------------------|

e-7----7---------10p7------7--|---0------0------0------0----|
b--8----8----8---------8-----8|----10-----10-----10-----10--|
g---------------------9-----9-|------11-----11-----11-----11|
d----0----0----0---------0----|-0------0------0------0------|
a-----------------------------|-----------------------------|
E-----------------------------|-----------------------------|                              
                              
e---9------9------9------9----|-7----7---------10p7------7--|
b----10-----10-----10-----10--|--8----8----8---------8-----8|
g------11-----11-----11-----11|---------------------9-----9-|
d-0------0------0------0------|----0----0----0---------0----|
a-----------------------------|-----------------------------|
E-----------------------------|-----------------------------|   

Pre-Chorus:
e-----------------------------|-----------------------------|
b-------3---3/-------10-------|-------0---------------------|
g---2----2-------9-----9--9/--|---7----7--0----0---0---0----|
d--0------0-----0-------0-----|--0------0-----9---9---9-----|
a-2---2--------9---9----------|-7---7-------10--10----------|
E-----------------------------|-----------------------------|

Slide Riff: x2 (Guitar 1 and 2 played at the same time)
Guitar 1:                       Guitar 2:
e------------------------------|-----------------------------|
b--12/10--------8/7------------|-17/5---------12/10-------7/8|
g---------9/7---------6/7---6/2|-------14/12---------9/7-----|
d-0------0-----0-----0-----0---|0-----0------0------0----0---|
a------------------------------|-----------------------------|
E------------------------------|-----------------------------|
[ Tab from: http://www.guitartabs.cc/tabs/s/smashing_pumpkins/galapogos_tab_ver_3.html ]
Interlude:
e------------------2-----|------------------2----0-0-|
b--0---0------0-----0----|--0---0------0-----0---3-3-|
g---2---2--2---0-------0-|---2---2--2---0--------2-2-|
d-4---4---4--2---2----2--|-4---4---4--2---2----2-0-0-|
a------------------------|---------------------------|
E------------------------|---------------------------|

Chorus:
e-0-0000000000000----|-----------------33-|-3-333333333333-33-|
b-3-3333333333333----|-2-2222222222222-33-|-3-333333333333-33-|
g-2-2222222222222-00-|-2-2222222222222-00-|-0-000000000000-00-|
d-0-0000000000000-00-|-2-2222222222222-00-|-0-000000000000-00-|
a-0-0000000000000-00-|-0-0000000000000-22-|-2-222222222222-22-|
E--------------------|-----------------00-|-0-000000000000-00-|

e-3-33333----3-33333-----|-0-0000000000000----|-----------------33-|
b-3-33333----1-11111-----|-3-3333333333333----|-2-2222222222222-33-|
g-0-00000-00-0-00000--00-|-2-2222222222222-00-|-2-2222222222222-00-|
d-x-xxxxx-00-2-22222--00-|-0-0000000000000-00-|-2-2222222222222-00-|
a-1-11111-00-3-33333--00-|-0-0000000000000-00-|-0-0000000000000-22-|
E------------------------|--------------------|-----------------00-|

e-3-333333333333-33-|-3333333333333333-|
b-3-333333333333-33-|-3333333333333333-|
g-0-000000000000-00-|-0000000000000000-|
d-0-000000000000-00-|-xxxxxxxxxxxxxxxx-|
a-2-222222222222-22-|-1111111111111111-|
E-0-000000000000-00-|------------------|

Outro:
e---0------0------9------9----|---0------0------9------9----|
b----10-----10-----10-----10--|----10-----10-----10-----10--|
g------11-----11-----11-----11|------11-----11-----11-----11|
d-0------0------0------0------|-0------0------0------0------|
a-----------------------------|-----------------------------|
E-----------------------------|-----------------------------|

e-7----7---------10p7------7-----|-0------------------------|
b--8----8----8---------8---------|-10-----------------------|
g---------------------9-----9/11-|-11-----------------------|
d----0----0----0---------0-------|-0------------------------|
a--------------------------------|--------------------------|
E--------------------------------|--------------------------|  

Tabbed by Scott Kavanagh
For more tabs like these check out www.tabster.tk
Comments