Smashing Pumpkins - Eye Chords & Tabs

 

Eye Chords & Tabs

Smashing Pumpkins Chords & Tabs

Version: 2 Type: Tab 0 ratings
1 star 2 stars 3 stars 4 stars 5 stars
comments

Eye Tab

   
"Eye" by the Smashing Pumpkins
From the Lost Highway Soundtrack
Tabbed by Patrick Vacek
Tuned down 1/2 step (Eb Ab Db Gb Bb Eb)

Intro (play it x2)
|---------------------------------------------------------
|---------------------------------------------------------
|-----------------------------8--7--8--5------------------
|---------8----7--8--5--7-----------------8--7--8---------
|--10--10---10--------------8-----------------------------
|---------------------------------------------------------

Verse Bass line 
E|--------------------------------
B|--------------------------------
G|--------------------------------
D|--------------------------------
A|--10-10--10-10--8-8--3-3--------
E|--------------------------------
[ Tab from: http://www.guitartabs.cc/tabs/s/smashing_pumpkins/eye_tab_ver_2.html ]
Bridge – “Is it any wonder” part - play the verse bass line

Chorus – “Turn to the gates” part

|----------------------------------
|----------------------------------
|----------------------------------
|----------------------------------
|--8-8--7-7--3-3--5-5--8-8--7-7----
|----------------------------------

Verse 2 – play the same thing as before

Chorus 2 - play the same thing as before

Ending bass line
|-------------------------------
|-------------------------------
|-------------------------------
|-------------------------------
|-10-10--8-8--3-3--6-6----------
|-------------------------------

Play the bass line a few times, then another guitar plays:
|----------------------------------
|----------------------------------
|----------------------------------
|-12-13-12--10-12-10-8--7/10-5-----
|----------------------------------
|----------------------------------
Comments