Smashing Pumpkins - Drown Chords & Tabs

 

Drown Chords & Tabs

Smashing Pumpkins Chords & Tabs

Version: 2 Type: Bass Tab 0 ratings
1 star 2 stars 3 stars 4 stars 5 stars
comments

Drown Bass Tab

Song: Drown
Artist: Smashing Pumpkins
Tunning: drop D tuning

G-------------------------------|
D--7--7-7-9-7-------------------| play twice
A--------------7--7-7-7-9-9-9-7-|
D-------------------------------|

G-----------------------------|-------7-6------------------|
D--7--7-7-9-7-----------------|7--7-7-----7----------------|
A--------------7--7--7-7-9-7--|-------------7--7-7-7-9-9-77|
D-----------------------------|----------------------------|

play those four bars a few times.  There are some variations 
on the {--7--7-7-7-9-9-9-7--} part on the A string, but its 
basically those two notes, with some hammer ons and what not 
mixed in.  Anyways...
                                       *let ring-------
Low D--10---10----10----10-----5---5---5---------------
           all    of    those  yes-ter-days        come

G--------------------------------------11--9--|
D---------------------------------------------|
A---------------------------------------------|
D---7---------7---------0---------------------|
 un-done  (let these notes ring)
[ Tab from: http://www.guitartabs.cc/tabs/s/smashing_pumpkins/drown_btab_ver_2.html ]
then repeat from the start again for 2nd verse

bridge:
G--------------------------------------------------------|
D--------7-7----------7-7-7-7----------------------------|
A--0-0-0-----0--0-0-0---------0--------------------------|
D--------------------------------0--0-0-0--0-0--0-2-0-2-4|
         play twice
low
D--7-7-7-7-7-7-7-7-/10--10-10-10-\5--5-5-5--5-5--5--5-5-5-5|

play twice, then

low
D--7-7-7-\2-/10--10-10-10--\5--5-5-5--5-5--5--5-5-5-5|

play that twice, then the breakdown:

A--5----0-----5----0----5----0-----5----0

A--5--5-5-5--5-5--5--5-5-0  <--play this riff for about the 
next 70 bars or so, this is the basic riff that goes through 
to the end of the song.  There is a change for a few bars 
about halfway through the feedback, but sitting here in fron 
of the computer i can't quite remember how it goes, so i'll 
get back to you.  If any part of this is wrong, i'm sorry, 
i'm doing this from memory.  obviously you have to listen to 
get the timing down, I just approximated.

reprinted with permission from...me!

Dave




Comments