Smashing Pumpkins - Disarm Chords & Tabs

 

Disarm Chords & Tabs

Smashing Pumpkins Chords & Tabs

Version: 4 Type: Tab 0 ratings
1 star 2 stars 3 stars 4 stars 5 stars
comments

Disarm Tab

ok, this is how Disarm goes. I always had wanted a tab that wasnt tabbed in chords, but
then i finally got enough energy to go look them all up and so im gunna make an accurate
tab. I have many live videos of this song also, so thats how i tabbed this.

Intro (you can find the timing easily by listening to the song, play this to the song)

e-000-----------------------0---0-------------------------------|
B-333-333333-333333-3333333-3-3-3--33-3-------------------------|
G-000-000000-000000-0000000-0-0-0--00-2-------------------------|
D-222-222222-222222-0000000-0-0-0--00-0-------------------------|
A-222-222222-333333-2222222-2-2-2--22-0-------------------------|
E-------------------3333333-3-3-3--33-2-------------------------|
[ Tab from: http://www.guitartabs.cc/tabs/s/smashing_pumpkins/disarm_tab_ver_4.html ]
this part goes like this
e-000-----------------------2222222--0--------------------------|
B-333-333333-333333-3333333-3333333--1--------------------------|
G-000-000000-000000-0000000-2222222--0-<-strum------------------| 
D-222-222222-222222-0000000-0000000--2--------------------------|
A-222-222222-333333-2222222----------3--------------------------|
E-------------------3333333-------------------------------------|

chorus part
e-000---------2222222--0---------------------------------------|
B-333-333333--3333333--1---------------------------------------|
G-000-000000--2222222--0-<-strum-------------------------------| 
D-222-222222--0000000--2---------------------------------------|
A-222-222222-----------3---------------------------------------|
E--------------------------------------------------------------|

that is the song right there. Parts change throughout, and the timing is pretty odd, but
very cool. Once you get the timing, the song will be easy to play. Very fun to play also.-ryan
Comments