Smashing Pumpkins - Daydream Chords & Tabs

 

Daydream Chords & Tabs

Smashing Pumpkins Chords & Tabs

Version: 2 Type: Tab

Daydream Tab

Band: Smashing Pumpkins
Song: Daydream
Album: Gish

I was looking for a good tab for this song but i couldnt find one anywhere which sounded 
so im deciding to make my own.


e|--0----0----0----0---(2)--(4)---0-----------|
B|--0----0----0----0---(2)--(4)---0-----------|
G|--4----6----4----2---(2)--(4)---6-----------|
D|--2----4----4----2----4----6----7-----------|
A|--4----6----2----0----4----6----7-----------|
E|----------------------2----4----5-----------|
    x7   x4   x4   x8   x3   x4  x16


This is the string arrangement for guitar
[ Tab from: http://www.guitartabs.cc/tabs/s/smashing_pumpkins/daydream_tab_ver_2.html ]
e|--12-11-9--------------------|
B|----------12-10-9------------|
G|-----------------------------| x2
D|-----------------------------|
A|-----------------------------|
E|-----------------------------|

On the third time play this

e|-----------------------------|
B|-----------------------------|
G|--9-8------------------------|
D|------11-9-------------------|
A|-----------12-11-------------|
E|-----------------------------|

This is only the tab for the first part of the song, sorry if you were looking for the 
bit of the song.....but anyway enjoy!