Smashing Pumpkins - Daydream Chords & Tabs

 

Daydream Chords & Tabs

Smashing Pumpkins Chords & Tabs

Version: 1 Type: Tab 0 ratings
1 star 2 stars 3 stars 4 stars 5 stars
comments

Daydream Tab

----------------------------------------------------------------------------
			     Smashing Pumpkins-Day Dream
Album:  Gish
----------------------------------------------------------------------------
Tabbed by:Josh C.
Email:

Tuning:Standard

*This is simply the basic form-Listen to the song to get down the strumming and timing.

*Guitar 1:  Acoustic
*Guitar 2:  Electric (w/fuzz)

Guitar 1:

e|---------------------------------------------------------------------------|
B|---------------------------------------------------------------------------|
G|--6----8----4------------------------6-------------------------------------|
D|--6----9----4-----6----------4---6---7-------------------------------------|
A|--4----7----2-----7----------4---6---7-------------------------------------|
E|------------------5----------2---4---5-------------------------------------|

*At 2:09

Guitar 1:
[ Tab from: http://www.guitartabs.cc/tabs/s/smashing_pumpkins/daydream_tab.html ]
e|-------------3-------------------------3-----------------------------------|
B|---2---------3----------------------2--3-----------------------------------|
G|---2---------0----------------------2--0-----------------------------------|
D|---2---------0----------------------2--0-----------------------------------|
A|---0---------2----------------------0--2-----------------------------------|
E|-------------3-------------------------3-----------------------------------|

Guitar 2:  (use your wammy)

e|---15----------------------------------------------------------------------|
B|------15-------------------------------------------------------------------|
G|---------14-^-^------------------------------------------------------------|
D|---------------------------------------------------------------------------|
A|---------------------------------------------------------------------------|
E|---------------------------------------------------------------------------|
Comments