Smashing Pumpkins - Daughter Chords & Tabs

 

Daughter Chords & Tabs

Smashing Pumpkins Chords & Tabs

Version: 1 Type: Tab 0 ratings
1 star 2 stars 3 stars 4 stars 5 stars
comments

Daughter Tab

   
#----------------------------------PLEASE NOTE---------------------------------#
#This file is the author's own work and represents their interpretation of the #
#song. You may only use this file for private study, scholarship, or research. #
#------------------------------------------------------------------------------##
Date: Fri, 5 Jan 1996 09:59:57 -0800
From: sten@ix.netcom.com (Scott, Mari & Brian )
Subject: Tab: "Daughter "Smashing Pumpkins

>                         "Daughter"
>                      Smashing Pumpkins
>
>                         Transcribed by,
>                              Brian Ebbitt
>
>
>
>
>Riff-a:
>e-----------6----------------6------|  |-12-|
>b--------7-----6---7-------7---7---7|  |-12-|
>g-----8----------8-------6-------6--|  |-12-|
>d--8-------------------8------------|  |-12-|
>a-----------------------------------|  |-12-|
>E-----------------------------------|2x|-12-|
>
>Riff-a 3 times....then
>
>Riff-b:
>e--------12--4----------12-|
>b--4-----12----0--2/4---12-|
>g-----0--12-------------12-|
>d--------12-------------12-|
>a--------------------------|
>E--------------------------|
>
>That is pretty much the whole song.
>
>Lyrics:
>(Bass only)
>hands that offer
>hands that take  (harmonics)
>someones daughter
>takin me away
>
>(riff-b, then riff-a)
>
>In the water
>just like a snake   (harmonics)
>someones daughter
>heads alone
>sleep away
>
>(Riff-A)
>and you feel abused
>all your life
>your love and truth  (harmonics)
[ Tab from: http://www.guitartabs.cc/tabs/s/smashing_pumpkins/daughter_tab.html ]
-these are cool, I was wondering if you could tab some Melonchollie
stuff, I already have Bullet in Butterfly wings and Here is no why
It is greatly appreciated, send to Wizard44@ix.netcom.com.....
If you need anything feel free
---- End Forwarded Message


From sten@ix.netcom.com Sun Jan  7 18:08:16 1996
 <199601071806.KAA22510@ix4.ix.netcom.com>
From: sten@ix.netcom.com (Scott, Mari & Brian )
Subject: Tab: Daughter - Smashing Pumpkins
To: Guitar@Nevada.edu
Status: O

>
>                         "Daughter"
>                      Smashing Pumpkins
>
>                         Transcribed by,
>                              Brian Ebbitt
>
>
>
>
>Riff-a:
>e-----------6----------------6------|  |-12-|
>b--------7-----6---7-------7---7---7|  |-12-|
>g-----8----------8-------6-------6--|  |-12-|
>d--8-------------------8------------|  |-12-|
>a-----------------------------------|  |-12-|
>E-----------------------------------|2x|-12-|
>
>Riff-a 3 times....then
>
>Riff-b:
>e--------12--4----------12-|
>b--4-----12----0--2/4---12-|
>g-----0--12-------------12-|
>d--------12-------------12-|
>a--------------------------|
>E--------------------------|
>
>That is pretty much the whole song.
>
>Lyrics:
>(Bass only)
>hands that offer
>hands that take  (harmonics)
>someones daughter
>takin me away
>
>(riff-b, then riff-a)
>
>In the water
>just like a snake   (harmonics)
>someones daughter
>heads alone
>sleep away
>
>(Riff-A)
>and you feel abused
>all your life
>your love and truth  (harmonics)

-these are cool, I was wondering if you could tab some Melonchollie
stuff, I already have Bullet in Butterfly wings and Here is no why
It is greatly appreciated, send to Wizard44@ix.netcom.com.....
If you need anything feel free
---- End Forwarded Message
Comments