Smashing Pumpkins - Crush Chords & Tabs

 

Crush Chords & Tabs

Smashing Pumpkins Chords & Tabs

Version: 3 Type: Bass Tab

Crush Bass Tab

-----------------------------------------------------------------
CRUSH  Smashing Pumpkins
-----------------------------------------------------------------

Tabbed By: Benno
e-mail: voodoolamp@gmail.com

Tuning: EADG
Chorus:
G|--------------------------------------------------------|
D|-------------------- 3--4--6----------------------------|
A|--------- 3--4--6---------------------------------------|
E|--4-- 6-------------------------------------------------|
[ Tab from: http://www.guitartabs.cc/tabs/s/smashing_pumpkins/crush_btab_ver_3.html ]
G|------------------------6------------------------------|
D|----------8----------------6---------------------------|
A|--6--6------4--4--4------------------------------------|
E|-------------------------------4-4-4-4-4-4-4-4---------|
Verse:
G|--------------------------------------------------------|
D|--------------------------------------------3--4--6-----|
A|------------------------------1--2--4--4----------------|
E|--4-4-4-4-4-4-4-4--2-2----------------------------------|
Break:
G|---------------------------------------------------------|
D|---------------------------------------------------------|
A|--6--3--6-6-6-6-6---4-4-4-4-4-4-4------------------------|
E|---------------------------------------------------------|
Verse 2:
G|----------------------------------------------------------------------------------|
D|----------------------------------------------------------------------------------|
A|--4-4-4-4-4-4-4-4/9-9-9-9-9-9-9-9-11-11-11-11-11-11-11-11-------------------------|
E|----------------------------------------------------------------------------------|
Sequence:
Chorus x6
Verse x4
Break
Verse 2
Chorus x4
Verse x4
Break
Outro x4
Chorus
Im not too sure about the part in the break to the outro, please email me if you got any 
cheers.