Smashing Pumpkins - Crestfallen Chords & Tabs

 

Crestfallen Chords & Tabs

Smashing Pumpkins Chords & Tabs

Version: 2 Type: Bass Tab 0 ratings
1 star 2 stars 3 stars 4 stars 5 stars
comments

Crestfallen Bass Tab

   
Song: Crestfallen
Artist: Smashing Pumpkins
Album: Adore
Tunning: E A D G
  __________________________   _______________________________
/Riff 1                     \ /Riff 2                         \
G|---------------------------|---------------------------------|
D|---------------------------|---------------------------------|
A|---3-----3-----------------|---------3--3--3-----------------|
E|5-----3-----3--1--1--3--3--|5--5--5-----------3--3--3--3--3--|
[ Tab from: http://www.guitartabs.cc/tabs/s/smashing_pumpkins/crestfallen_btab_ver_2.html ]
 ________________________   ____________________    _______________________
/Riff 3                  \ /Riff 4              \ /Riff 5                  \
G|------------------------|----------------------|--------------------------|
D|------------------------|----------------------|--------------------------|
A|---5--------------------|3--3------------------|3--3--------------5-------|
E|1-----3--3--3--3--3--3--|-------3--3--5--5--5--|------3--3--1--1-----3--3-|

  _______________________
/Riff 6                  \
G|------------------------|
D|------------------------|
A|------------------------|
E|5--5--0--0--3--3--3--3--|


Number of times to play each Riff and in the order they are played
Riff 1 (x1)
Riff 2 (x2)
Riff 3 (x1)
Riff 4 (x2)
Riff 5 (x1)
Riff 6 (x4)
Riff 2 (x2)
Riff 3 (x1)
Riff 6 (x4)
Riff 1 (x1)
Riff 6 (x12)

This tab was made by Nathan Amber. Send questions and comments to
iha_eeha@hotmail.com


Comments