Smashing Pumpkins - Bullet With Butterfly Wings Chords & Tabs

 

Bullet With Butterfly Wings Chords & Tabs

Smashing Pumpkins Chords & Tabs

Version: 7 Type: Tab 0 ratings
1 star 2 stars 3 stars 4 stars 5 stars
comments

Bullet With Butterfly Wings Tab

Artist: The Smashing Pumpkins
Song: Bullet with Butterfly Wings
Album: Mellon Collie and the Infinite Sadness
Tabbed By: Pumpkinhead15 

All I'll give you is what you need...minus the solo...which takes too long to
type.  I highly recommend buying the Mellon Collie tab book....it's awesome.

Riff 1 (clean tone)(Guitars 1 and 2)
|--------------------------------------------------
|-0--0----------------------------------0--0-------
|-4--4----------4--------------------4--4--4--4----
|-4--4-----4-4--4--------------4-----4--4--4--4--4-
|-2--2--0--2-2--2--2--2--2--2--2-----0--0--0--0--0-
|---------------3--3--0--0--0--0--0----------------

[ Tab from: http://www.guitartabs.cc/tabs/s/smashing_pumpkins/bullet_with_butterfly_wings_tab_ver_7.html ]
Chorus Riff (distorted) (Guitars 1 and 2)
|-------------------------------------------------------------------
|-------------------------------------------------------------------
|-----------------6-6-7--7--7-----------------------------------x-x-
|-9---9--7--5--5--6-6-7--7--7--5-5-7---7----0-14\---------------x-x-
|-9---9--7--5--5--4-4-5--5--5--5-5-7---7----0-14\-----------0-0-x-x-
|-7---7--5--3--3---------------3-3-5---5--0---12\---0--3------------


Chorus End
|-------------------------------
|-------------------------------
|-------------------------------
|--9\------5-------4------------
|--9\--------------4------------
|--7\---0-------0--2--0--2/5----(hold it, then bend and start with Riff 1 again.)
Comments