Smashing Pumpkins - Bullet With Butterfly Wings Chords & Tabs

 

Bullet With Butterfly Wings Chords & Tabs

Smashing Pumpkins Chords & Tabs

Version: 1 Type: Tab 0 ratings
1 star 2 stars 3 stars 4 stars 5 stars
comments

Bullet With Butterfly Wings Tab

Song Title: Bullet W/ Butterfly Wings
Artist: The Smashing Pumpkins


Main Part:
|---------------------------------------
|---------------------------------------
|---------------------------------------
|-4-4-4-4---1-4-4-4-4-------------------
|-4-4-4-4-1-1-4-4-4-4-------------------
|-2-2-0-2-1---2-2-0-2-5-5-4-5-5---------

Pre Chorus (Even though i know...):
[ Tab from: http://www.guitartabs.cc/tabs/s/smashing_pumpkins/bullet_with_butterfly_wings_tab.html ]
|-----------|--------------------------
|-----------|--------------------------
|-x-x-x-x-x-|-x-x-x-x-x----------------
|-x-x-x-x-x-|-x-x-x-x-x----------------
|-2-4-2-4-2~|-2-4-2-4-2~---------------
|-2-3-2-4-2~|-2-3-2-4-2~---------------
P.S. the x's mean palm mutes.

Main Chorus (Dispite all my rage...! w/ heavy distortion)
|-------------------
|-------------------
|-------------------
|-5^-5-5-6~---------
|-5-5--5-6~---------
|-5-5--5-6~---------
I am not sure of the quiet part of the song yet. I have looked at
some other tabs to get some ideas, but it just would not be right
taking someone elses tabs for my own. 
This is all i have, i hope you like it. I'm pretty sure it is not
correct but it will do. Hope you enjoy it! If any corrections or
statments e-mail me at HeadlessGuitarist@aol.com


Comments