Smashing Pumpkins - Bullet With Butterfly Wings Chords & Tabs

 

Bullet With Butterfly Wings Chords & Tabs

Smashing Pumpkins Chords & Tabs

Version: 3 Type: Bass Tab 0 ratings
1 star 2 stars 3 stars 4 stars 5 stars
comments

Bullet With Butterfly Wings Bass Tab

SMASHING PUMPKINS - BULLET WITH BUTTERFLY WINGS

Im not their biggest fan but this song kicks ass, so I thought I'd tab it myself - blink1skate2@hotmail.com

VERSE
G|--------------------------------|
D|--------------------------------|
A|--2-2-0-2-0------------0-0-0-0--|
E|------------3~-0-0-0-0----------|

VERSE 2
G|-----------------------------------|
D|-----------------------------------|
A|--2-2-2-2-----------------0-0-0-0--|
E|----------0-0-0-0-3-3-3-3----------|

VERSE 3
G|----------------------------------|
D|----------------------------------|
A|-2-2-2-2-----------------0-0-0-0--|
E|---------3-3-3-3-0-0-0-0----------|
[ Tab from: http://www.guitartabs.cc/tabs/s/smashing_pumpkins/bullet_with_butterfly_wings_btab_ver_3.html ]
CHORUS
G|---------------------------------------|----------|
D|---------------------------------------|----------|
A|-2-2-2-0---------5-5-5-5-5-0-0-0-0-0-7-|-5-3------|
E|---------3-3-3-3-----------------------|-----5-3--|

LINK
G|----------|
D|----------|
A|----------|
E|-2-0-2-5--|

BRIDGE 1
G|-------------------|
D|-------------------|
A|-----2~------------|
E|-4-4------2-0-2-5--|

BRIDGE 2
G|-------------------|------------------------------------|
D|-------------------|------------------------------------|
A|-------------------|------------------------------------|
E|-0-0-3~---2-0-2-5--|--0-0-3~---2-2-2-2-2-2-2-2-2-2-2-2--|

END CHORUS
G|------------------------------|
D|------------------------------|
A|-2-2-2-0---------5-0-0-0-0-1--|
E|---------3-3-3-3--------------|
Comments