Smashing Pumpkins - Bullet With Butterfly Wings Chords & Tabs

 

Bullet With Butterfly Wings Chords & Tabs

Smashing Pumpkins Chords & Tabs

Version: 1 Type: Bass Tab 0 ratings
1 star 2 stars 3 stars 4 stars 5 stars
comments

Bullet With Butterfly Wings Bass Tab

   
think ya'll might like this..
[ Tab from: http://www.guitartabs.cc/tabs/s/smashing_pumpkins/bullet_with_butterfly_wings_btab.html ]
Bullet With Butterfly Wings
Tab for Guitar + Bass
 
Bass comes first, then the guitar..
 
Intro Bass:
----------------------------|
----------------------------|
-2-2-0-2------------0-0-0-0-|
---------3~-0-0-0-0---------|
 
PreChorus Bass:                  
repeat -------------------------v and play this right b4 chorus
---------------------------------|-----------------------------------
---------------------------------|-----------------------------------
-2-2-2-------------------0-0-0-0-|-2-2-2---------0-0-0-0-0-5-5-5-5-5-
-------0-0-0-0-3-3-3-3-3---------|-------3-3-3-3---------------------
 
                                      fast
Chorus Bass:                         vvvvvvv    after third one
----------------------------------------------|-----------------------
----------------------------------------------|-----------------------
-2-2-2-0---------4-5-5-5-5\0-0-0-0-7-5p3------|-----------------------
---------3-3-3-3-------------------------5p3--|-2-0-2-5~~~------------
 
Funky Thingy:
--------------------
--------------------
------2~~-----------
-4-4------2-0-2-5~~-
 
"Tell me i'm the only one.."
--------------------
--------------------
--------------------
-0-0-3~~-2-0-2-5~~--
 
(last one goes:)
-----------------------------------
-----------------------------------
-----------------------------------
-0-0-3~~-2-2-2-2-2-2-2-2-2-2-2-2-2-
 
End:
----------------------------------
----------------------------------
-2-2-2-0-------4-5-5-5-2-0-0-0-1--
---------3-3-3--------------------
 
Very End:
-----------------------------------
-----------------------------------
-----2~~---------------------------
-4-4-----2--0--2--5~~~-------------
 
 
Guitar:
 
Chorus:
 
D5
B5 G5 D5 A5 E5 (799xxx) G5
(knowing billy he's playing the chords in first position..)
 
At end of chorus:
---------
---------
---------
-4(4)4-7-
-4(4)4-7-
-2-0-2-5-
 
Under second verse:
 
----------------------------
----0----0----0-------------
-14---12---11---11h14-------
----------------------12h14-
----------------------------
----------------------------
 
Under prechorus:
 
---------------------------------
---------------------------------
-8-8-8-8-8-8-8-8-8-8-8-8-8-8-8-8-
-9-9-9-9-9-9-9-9-9-9-9-9-9-9-9-9-
---------------------------------
---------------------------------
 
Funky Thing:
 
-------6b7---------4b5-------6b7--------9b10~~~~~~~~~~------------------
------------------------------------------------------------------------
-----4---------------------4--------------------------------------------
-6-6-4-----4(4)4-7-----6-6-4-----4(4)4-7--------------------------------
-6-6-2-----4(4)4-7-----6-6-2-----4(4)4-7--------------------------------
-4-4-------2-0-2-5-----4-4-------2-0-2-5--------------------------------
 
Next:
 
Funky thing without bends on high E string
 
Listen to know when it stops..
 
Quiet Part:
-----------------------------------------------
-----4---------------7-------------------------
---4---------5-----7---7-----7-------2-----5---
-2-----0---5---5-5---------7---7---2-----5---5-
---------3---------------5-------0-----3-------
                                +
 
Repeat and eventually it'll change at + back to power chords:
 
E5 G5
 
and then repeat:
 
B5 G5 D5 A5
 
under that with wah on G string 14th fret bent 15.5
 
 
Thanks to WDRE (Underground Network) for playing this!!

---
----------------------------------------------------------------
Randy Locklair             Lightning Sky Programming
rlocklair@envirolink.org   Watch for AsylumBBS/Win Coming Soon!
"All that you suffer is all that you are" - Smashing pumpkins
Editor-in-Chief of the upcoming ezine Common Nonsense.
For Common Nonsense information, email: itsslow@aol.com or
check the home page: 
http://users.aol.com/itsslow/common_nonsense.html
or my home page:     http://users.aol.com/itsslow/home.html
Pumpkin Pie: The smashing pumpkins page:
    http://users.aol.com/itsslow/pumpkin_pie.html
----------------------------------------------------------------

"If you go and i would stay
and you would call my name..    - Smashing Pumpkins,
i would cry and I would cry.."     Nothing and Everything


Comments