Smashing Pumpkins - Bullet With Butter Fly Wings Chords & Tabs

 

Bullet With Butter Fly Wings Chords & Tabs

Smashing Pumpkins Chords & Tabs

Version: 1 Type: Tab 0 ratings
1 star 2 stars 3 stars 4 stars 5 stars
comments

Bullet With Butter Fly Wings Tab

   
Tuning (e,b,g,d,a,e)high to low
Intro 
e[-----------------------------------------------]
b[-----------------------------------------------]
g[-4-4-4-4---------2-2-2-------------------------]
d[-4-4-4-4-5-2-2-2-2-2-2-------------------------]
a[-2-2-0-2-5-2-2-2-0-0-0-------------------------]
e[---------3-0-0-0-------------------------------]

Pre-chorus 
e[-----------------------------------------------]
b[-----------------------------------------------]
g[-4--------2-2----------------------------------]
d[-4--2--5--2-2----------------------------------]
a[-2--2--5--0-0----------------------------------]
e[----0--3---------------------------------------]

Chorus (heavy Distortion)
e[-----------------------------------------------]
b[-----------------------------------------------]
g[-4-4-4-------7-7-7-9-9-9-4---------------------]
d[-4-4-4-5-5-5-7-7-7-9-9-9-4-2/5-5---------------]
e[-2-2-2-5-5-5-5-5-5-7-7-7-2-2/5-5---------------]
e[-------3-3-3---------------0/0-3---------------]
[ Tab from: http://www.guitartabs.cc/tabs/s/smashing_pumpkins/bullet_with_butter_fly_wings_tab.html ]
End of Chourus
e[-----------------------------------------------]
b[-----------------------------------------------]
g[-----------------------------------------------]
d[-2-2-4-5---------------------------------------]
a[-2-2-4-5---------------------------------------]
e[-0-0-2-3---------------------------------------]

play the intro 

play the pre-chorus agian

play the chorus again

then at the end play
e[-----------------------------------------------]
b[-----------------------------------------------]
g[--4-------5bu-4-------7bu----------------------]
d[--4-2/5-5-----4-2/5-5--------------------------]
a[--2-2/5-5-----2-2/5-5--------------------------]
e[----0/0-3-------0/0-3--------------------------]
          
and then play (with heavy distortion)
e[-----------------------------------------------]
b[-----------------------------------------------]
g[-----2-2-4-5-----------------------------------]
d[-2-5-2-2-4-5-----------------------------------]
a[-2-5-0-0-2-3-----------------------------------]
e[-0-0-------------------------------------------]

then play
e[-----------------------------------------------]
b[-----------------------------------------------]
g[-----4---------------7-------9-------4---------]
d[---4---4-----5-----7---7---9---9---4--------5--]
a[-2---------5---5-5-------7-------2--------5---5]
e[---------3-----------------------------3-------]
play chorus again but with out slide at the end
Comments