Smashing Pumpkins - Blew Away Chords & Tabs

 

Blew Away Chords & Tabs

Smashing Pumpkins Chords & Tabs

Version: 1 Type: Tab 0 ratings
1 star 2 stars 3 stars 4 stars 5 stars
comments

Blew Away Tab

   
#----------------------------------PLEASE NOTE---------------------------------#
#This file is the author's own work and represents their interpretation of the #
#song. You may only use this file for private study, scholarship, or research. #
#------------------------------------------------------------------------------##
From: perob@willow.uml.edu

Smashing Pumpkins-Blew Away
Transcribed by Bryan Pero(perob@willow.uml.edu.)

This is the first time I've transcribed something, but it sounds pretty close.
If you've got a better version or have any comments or changes please post them
or e-mail them to me.

~ =vibrato
/=slide up
\=slide down
b= bend
b&r=bend and release
p=pull off

Chord formations:
D: 000232
D/F#: 200233 (fret low E string w/thumb)
G: 320033
G6/A: 002033
C(9): 023033

Guitar I-(clean electric)written in tab
Guitar II-(acoustic) chords written above tab

Intro:

    D			    G6/A	       D
E-------------------------------------------|
B-------------------------------------------|
G-----------------------2/4~--4b--2p4/7~----|
D-------------------------------------------|
A---5--5--5/7--5~---------------------------|
E-------------------------------------------|

			 G6/A   D
E---------------------------|
B---------------------------|
G---7--7p9--7~--11b&r--9~---|
D---------------------------|
A---------------------------|
E---------------------------|

		 G(enter drums)	  G6/A
E---------------------10b------------10-------------|
B-------------------------------10b&r---10----------|
G---9--11--12~--12-12-----12-12------------12--11---|
D---------------------------------------------------|
A---------------------------------------------------|
E---------------------------------------------------|

    C(9)       G6/A
E------------------------------------|
B------------------------------------|
G---9--7------------7--9--9b--7--9---|
D---------5/7--7--9------------------|
A------------------------------------|
E------------------------------------|

	G                     G6/A
E---------------10b------------10-------------|
B-------------------------10b&r---10----------|
G---/12b--12-12-----12-12------------12--11---|
D---------------------------------------------|
A---------------------------------------------|
E---------------------------------------------|

	C(9)       Dsus
E---------------17b&r--17--15~-----------|
B---15/17--15~---------------------------|
G----------------------------------12b---|
D----------------------------------------|
A----------------------------------------|
E----------------------------------------|

Verse I:

 G    G6/A  C(9)        Dsus          G
Blew, blew, away, but I don't want a thing
	 G6/A         C(9)    Dsus
Blew, blew-oo-hoo, blew-oo-ooo
G           D/F#         C(9)              Dsus
And if you love her, you know it will come true
G           D/F#         C(9)               Dsus
And if you need her, you know that she'll be there
G             G6/A      C(9)             Dsus  w/fill #1
Stay awake, I lie here, with her and the phone
G             G6/A         C(9)                     Dsus
When I wake, inside you, I know you know, that I've lied...

Fill #1:

E---10-8-7--8-7--------|
B---------------8------|
G-----------------7~---|
D----------------------|
A----------------------|
E----------------------|

Interlude:
[ Tab from: http://www.guitartabs.cc/tabs/s/smashing_pumpkins/blew_away_tab.html ]
    D                 G6/A
E----------------------------------------------|
B---------------------10b--8~--7-8-7------8b---|
G---7--9--11-12--11~-----------------7~--------|
D----------------------------------------------|
A----------------------------------------------|
E----------------------------------------------|

   D            G6/A     C(9)                G6/A       G
E--12\10--10\7-------------------------------------3p5--3~--|
B--12\10--10\7--7-8--7~--10b--8~--7p8--7--3--5--3p5---------|
G-----------------------------------------------------------|
D-----------------------------------------------------------|
A-----------------------------------------------------------|
E-----------------------------------------------------------|

Verse II:

G     G6/A    C(9)      Dsus          G
Blew, blew, away, but I don't want a thing
G      G6/A         C(9)    Dsus
Blew, blew-ho-ooo, blew-oo-ooo
G             D/F#         C(9)            Dsus             G
And if you're sad too,but until the angel sings and touches you
         D/F#     C(9) Dsus
Dont' confuse, my only life
       G       G6/A     C(9)              Dsus  w/fill #1
I said blew-oo-ooo, and please don't ever leave
    G                  G6/A
And I will grieve, and remember thee
C(9)             Dsus    G6/A
Hope to meet you there, renewed...

Pre-Chorus:

    D                   G6/A             D
E--------------------------------------------|
B--------------------------------------------|
G-----------------------2/4~--4b&r--2p4/7~---|
D--------------------------------------------|
A---5--5--5-5--5p7--5~-----------------------|
E--------------------------------------------|

		  G6/A   Dsus					*-distortion on
E------------------------10---12---10-12-10------|
B--------------------------10---10---------10~---|
G---7p9--7~--12~--*14~---------------------------|
D------------------------------------------------|
A------------------------------------------------|
E------------------------------------------------|

     C(9)	                        G
E---15-14---15-14-----------------------------|
B--------15------15---10~--10b&r--10-8-7-8~---|
G---------------------------------------------|
D---------------------------------------------|
A---------------------------------------------|
E---------------------------------------------|

    G6/A       C(9)
E----------------------------------------------|
B---5-3---3~-------------------10--------------|
G-------4------------7p9--10b-----11--10--11---|
D----------------7p9---------------------------|
A--------------9-------------------------------|
E----------------------------------------------|

			     D
E-------------------10~--12~--14~--15~---|
B----------------10~---------------------|
G---9~--11~--12~-------------------------|
D----------------------------------------|
A----------------------------------------|
E----------------------------------------|

Chorus: (there's also a slide guitar part here, but I haven't figured it out
yet)

    G       G6/A               C(9)    Dsus
And I wanna let her know, that I won't let her go
G<G*         G6/A          C(9)            Dsus *-w/fill #2
I-hiii wanna let her know, that I love you so
    G           G6/A          C(9)
And blew, blew, blew-oo-hoo, away-y
       Dsus
But I don't wanna thing
G    <G   G6/A        C(9)  Dsus    G
Blew-hoo, I love you, blew-oo-hoo...

Fill #2:

E-------------------------------|
B------14b---13-12--13-12-------|
G---12--------------------12~---|
D-------------------------------|
A-------------------------------|
E-------------------------------|


Good luck, and please send me your comments.

	Bryan P.
Comments