Smashing Pumpkins - Ava Adore Chords & Tabs

 

Ava Adore Chords & Tabs

Smashing Pumpkins Chords & Tabs

Version: 3 Type: Bass Tab

Ava Adore Bass Tab

   
-----------------------------------------------------------------------------
                      AVA ADORE - The Smashing Pumpkins
-----------------------------------------------------------------------------

Tabbed by; bloogy182

Tuning; Eb,Ab,Db,Gb

~ = let ring

Intro/Verse (x10) (0:06)
Gb|-----------------|
Db|-----------------|
Ab|-----------------|
Eb|-2-2--222--5~----|

Break (x1)
Gb|----------------------------------------|
Db|----------------------------------------|
Ab|-7~7~5555-55---------------7-7-5555-55--|
Eb|-------------2-2--222--5~---------------|

Chorus (x1)
Gb|-------------------------------------------------------------------------|
Db|-------------------------------------------------------------------------|
Ab|-00000000-00000000-44444444-44444444-55555555-22222222-00000000-00000000-|
Eb|-------------------------------------------------------------------------|

Verse (x8)
Gb|-----------------|
Db|-----------------|
Ab|-----------------|
Eb|-2-2--222--5~----|

Break (x1)
Gb|--------------------------|
Db|--------------------------|
Ab|-7~7~5555-55--------------|
Eb|-------------2-2--222--5~-|
[ Tab from: http://www.guitartabs.cc/tabs/s/smashing_pumpkins/ava_adore_btab_ver_3.html ]
Chorus (x2)
Gb|-------------------------------------------------------------------------|
Db|-------------------------------------------------------------------------|
Ab|-00000000-00000000-44444444-44444444-55555555-22222222-00000000-00000000-|
Eb|-------------------------------------------------------------------------|
then...(x1)
Gb|----------|
Db|----------|
Ab|-22222222-|
Eb|----------|

Verse (x2) (2:15)
Gb|-----------------|
Db|-----------------|
Ab|-----------------|
Eb|-2-2--222--5~----|

Break (x1)
Gb|--------------------------|
Db|--------------------------|
Ab|-7~7~5555-55--------------|
Eb|-------------2-2--222--5~-|

Guitar Solo (x1)
Gb|-------------------------------------------------------------------------|
Db|-------------------------------------------------------------------------|
Ab|-00000000-00000000-44444444-44444444-55555555-22222222-00000000-00000000-|
Eb|-------------------------------------------------------------------------|

Chorus (x2)
Gb|-------------------------------------------------------------------------|
Db|-------------------------------------------------------------------------|
Ab|-00000000-00000000-44444444-44444444-55555555-22222222-00000000-00000000-|
Eb|-------------------------------------------------------------------------|
then...(x1)
Gb|----------|
Db|----------|
Ab|-22222222-|
Eb|----------|

Bridge (x1)
Gb|-------------------|
Db|-------------------|
Ab|-00000000-22222222-|
Eb|-------------------|

Verse (x4)       
Gb|-----------------|
Db|-----------------|
Ab|-----------------|
Eb|-2-2--222--5~----|

Break (x5)
Gb|--------------------------|
Db|--------------------------|
Ab|-7~7~5555-55--------------|
Eb|-------------2-2--222--5~-|

Verse (Just fade it until the end) 
Gb|-----------------|
Db|-----------------|
Ab|-----------------|
Eb|-2-2--222--5~----|

I've finally got this and its about 99.9% correct. Plz rate! Thnx!