Smashing Pumpkins - Annie Dog Chords & Tabs

 

Annie Dog Chords & Tabs

Smashing Pumpkins Chords & Tabs

Version: 1 Type: Tab 0 ratings
1 star 2 stars 3 stars 4 stars 5 stars
comments

Annie Dog Tab

   
Tuning: E A D G B E


INTRO/VERSE
                   x3
|--------------------|
|--------------------|
|--------------------|
|-------------0--2-5-|
|-0-2--2-3--3-2--3-7-|
|-1-3--3-5--1--------|


BRIDGE
                                x2
|---------------------------------|
|---------------------------------|
|---------------------------------|
|------------2---------------2----|
|-0--3----2--3----0--3----2--2----|
|-1-------0-------1-------0-------|


VERSE 2
                   x3
|--------------------|
|--------------------|
|--------------------|
|-------------0--2-5-|
|-0-2--2-3--3-2--3-7-|
|-1-3--3-5--1--------|


BRIDGE 2
                                x2
|---------------------------------|
|---------------------------------|
|---------------------------------|
|------------2---------------2----|
|-0--3----2--3----0--3----2--2----|
|-1-------0-------1-------0-------|


VERSE 3
                   x3
|--------------------|
|--------------------|
|--------------------|
|-------------0--2-5-|
|-0-2--2-3--3-2--3-7-|
|-1-3--3-5--1--------|


BRIDGE 3
                                x2
|---------------------------------|
|---------------------------------|
|---------------------------------|
|------------2---------------2----|
|-0--3----2--3----0--3----2--2----|
|-1-------0-------1-------0-------|

[ Tab from: http://www.guitartabs.cc/tabs/s/smashing_pumpkins/annie_dog_tab.html ]
VERSE 4
                   x2
|--------------------|
|--------------------|
|--------------------|
|-------------0--2-5-|
|-0-2--2-3--3-2--3-7-|
|-1-3--3-5--1--------|


INTERLUDE
|--------------------------------------|
|--------------------------------------|
|----------0---------------------------|
|---2-0----2---2------2-0----2---------|
|-3---0------2-3----3---0----2---------|
|-5-----------------5------------------|
|Guitar 2
|--------------------------------------|
|--------------------------------------|
|----------------------------4b5r4~~~~-|
|--------------------------------------|
|--------------------------------------|
|--------------------------------------|

|--------------------------------------|
|--------------------------------------|
|----------0---------------------------|
|---2-0----2---2------2-0--------------|
|-3---0------2-3----3---0----2---------|
|-5-----------------5--------0---------|
|Guitar 2
|--------------------------------------|
|----------3---5-----------------------|
|-------------------5--------4b5r4~~~~-|
|--------------------------------------|
|--------------------------------------|
|--------------------------------------|


VERSE 5
                   x4
|--------------------|
|--------------------|
|--------------------|
|-------------0--2-5-|
|-0-2--2-3--3-2--3-7-|
|-1-3--3-5--1--------|

Little piano bit at the very end
|-----------|
|-0---1---0-|
|-0---2---0-|
|---2---2---|
|-----------|
|-----------|
Comments